ISO-10303-21;
HEADER;
FILE_DESCRIPTION (( 'STEP AP214' ),
    '1' );
FILE_NAME ('S1000H.step',
    '2012-04-20T21:06:43',
    ( '' ),
    ( '' ),
    'SwSTEP 2.0',
    'SolidWorks 2012',
    '' );
FILE_SCHEMA (( 'AUTOMOTIVE_DESIGN' ));
ENDSEC;

DATA;
#1 = DIRECTION ( 'NONE',  ( -1.000000000000000000, 0.0000000000000000000, 0.0000000000000000000 ) ) ;
#2 = ORIENTED_EDGE ( 'NONE', *, *, #105, .T. ) ;
#3 = ORIENTED_EDGE ( 'NONE', *, *, #105, .F. ) ;
#4 = ORIENTED_EDGE ( 'NONE', *, *, #104, .F. ) ;
#5 = VERTEX_POINT ( 'NONE', #94 ) ;
#6 = VERTEX_POINT ( 'NONE', #95 ) ;
#7 = EDGE_LOOP ( 'NONE', ( #4, #2 ) ) ;
#8 = EDGE_LOOP ( 'NONE', ( #3, #93 ) ) ;
#9 = AXIS2_PLACEMENT_3D ( 'NONE', #54, #55, #56 ) ;
#10 = PRODUCT_DEFINITION_FORMATION_WITH_SPECIFIED_SOURCE ( 'ANY', '', #81, .NOT_KNOWN. ) ;
#11 = FILL_AREA_STYLE ('',( #109 ) ) ;
#12 = SURFACE_STYLE_FILL_AREA ( #11 ) ;
#13 = SURFACE_SIDE_STYLE ('',( #12 ) ) ;
#14 = SURFACE_STYLE_USAGE ( .BOTH. , #13 ) ;
#15 = PRESENTATION_STYLE_ASSIGNMENT (( #14 ) ) ;
#16 =( LENGTH_UNIT ( ) NAMED_UNIT ( * ) SI_UNIT ( $, .METRE. ) );
#17 =( CONVERSION_BASED_UNIT ( 'INCH', #122 ) LENGTH_UNIT ( ) NAMED_UNIT ( #80 ) );
#18 =( NAMED_UNIT ( * ) PLANE_ANGLE_UNIT ( ) SI_UNIT ( $, .RADIAN. ) );
#19 =( NAMED_UNIT ( * ) SI_UNIT ( $, .STERADIAN. ) SOLID_ANGLE_UNIT ( ) );
#20 = CARTESIAN_POINT ( 'NONE',  ( 0.0000000000000000000, 0.0000000000000000000, 0.0000000000000000000 ) ) ;
#21 = DIRECTION ( 'NONE',  ( -0.0000000000000000000, -0.0000000000000000000, -1.000000000000000000 ) ) ;
#22 = DIRECTION ( 'NONE',  ( -1.000000000000000000, 0.0000000000000000000, 0.0000000000000000000 ) ) ;
#23 = CARTESIAN_POINT ( 'NONE',  ( 0.0000000000000000000, 0.0000000000000000000, 0.0000000000000000000 ) ) ;
#24 = DIRECTION ( 'NONE',  ( -0.0000000000000000000, 0.0000000000000000000, 1.000000000000000000 ) ) ;
#25 = DIRECTION ( 'NONE',  ( 1.000000000000000000, 0.0000000000000000000, 0.0000000000000000000 ) ) ;
#26 = CARTESIAN_POINT ( 'NONE',  ( 0.0000000000000000000, 0.0000000000000000000, 0.0000000000000000000 ) ) ;
#27 = DIRECTION ( 'NONE',  ( -1.224646799147353200E-016, 0.0000000000000000000, -1.000000000000000000 ) ) ;
#28 = DIRECTION ( 'NONE',  ( -1.000000000000000000, 0.0000000000000000000, 1.224646799147353200E-016 ) ) ;
#29 = FILL_AREA_STYLE_COLOUR ( '', #100 ) ;
#30 = FILL_AREA_STYLE ('',( #29 ) ) ;
#31 = SURFACE_STYLE_FILL_AREA ( #30 ) ;
#32 = SURFACE_SIDE_STYLE ('',( #31 ) ) ;
#33 = SURFACE_STYLE_USAGE ( .BOTH. , #32 ) ;
#34 = PRESENTATION_STYLE_ASSIGNMENT (( #33 ) ) ;
#35 =( LENGTH_UNIT ( ) NAMED_UNIT ( * ) SI_UNIT ( $, .METRE. ) );
#36 =( CONVERSION_BASED_UNIT ( 'INCH', #64 ) LENGTH_UNIT ( ) NAMED_UNIT ( #82 ) );
#37 =( NAMED_UNIT ( * ) PLANE_ANGLE_UNIT ( ) SI_UNIT ( $, .RADIAN. ) );
#38 =( NAMED_UNIT ( * ) SI_UNIT ( $, .STERADIAN. ) SOLID_ANGLE_UNIT ( ) );
#39 =( LENGTH_UNIT ( ) NAMED_UNIT ( * ) SI_UNIT ( $, .METRE. ) );
#40 =( CONVERSION_BASED_UNIT ( 'INCH', #62 ) LENGTH_UNIT ( ) NAMED_UNIT ( #84 ) );
#41 =( NAMED_UNIT ( * ) PLANE_ANGLE_UNIT ( ) SI_UNIT ( $, .RADIAN. ) );
#42 =( NAMED_UNIT ( * ) SI_UNIT ( $, .STERADIAN. ) SOLID_ANGLE_UNIT ( ) );
#43 = APPLICATION_PROTOCOL_DEFINITION ( 'draft international standard', 'automotive_design', 1998, #108 ) ;
#44 = FILL_AREA_STYLE_COLOUR ( '', #101 ) ;
#45 = FILL_AREA_STYLE ('',( #44 ) ) ;
#46 = SURFACE_STYLE_FILL_AREA ( #45 ) ;
#47 = SURFACE_SIDE_STYLE ('',( #46 ) ) ;
#48 = SURFACE_STYLE_USAGE ( .BOTH. , #47 ) ;
#49 = PRESENTATION_STYLE_ASSIGNMENT (( #48 ) ) ;
#50 =( LENGTH_UNIT ( ) NAMED_UNIT ( * ) SI_UNIT ( $, .METRE. ) );
#51 =( CONVERSION_BASED_UNIT ( 'INCH', #65 ) LENGTH_UNIT ( ) NAMED_UNIT ( #79 ) );
#52 =( NAMED_UNIT ( * ) PLANE_ANGLE_UNIT ( ) SI_UNIT ( $, .RADIAN. ) );
#53 =( NAMED_UNIT ( * ) SI_UNIT ( $, .STERADIAN. ) SOLID_ANGLE_UNIT ( ) );
#54 = CARTESIAN_POINT ( 'NONE',  ( 0.0000000000000000000, 0.0000000000000000000, 0.0000000000000000000 ) ) ;
#55 = DIRECTION ( 'NONE',  ( 0.0000000000000000000, 0.0000000000000000000, 1.000000000000000000 ) ) ;
#56 = DIRECTION ( 'NONE',  ( 1.000000000000000000, 0.0000000000000000000, 0.0000000000000000000 ) ) ;
#57 = SHAPE_DEFINITION_REPRESENTATION ( #134, #74 ) ;
#58 = PRODUCT_CONTEXT ( 'NONE', #108, 'mechanical' ) ;
#59 = APPLICATION_PROTOCOL_DEFINITION ( 'draft international standard', 'automotive_design', 1998, #107 ) ;
#60 = STYLED_ITEM ( 'NONE', ( #49 ), #74 ) ;
#61 = PRESENTATION_LAYER_ASSIGNMENT (  '', '', ( #60 ) ) ;
#62 = LENGTH_MEASURE_WITH_UNIT ( LENGTH_MEASURE( 0.02539999999999999900 ), #39 );
#63 = MECHANICAL_DESIGN_GEOMETRIC_PRESENTATION_REPRESENTATION (  '', ( #60 ), #114 ) ;
#64 = LENGTH_MEASURE_WITH_UNIT ( LENGTH_MEASURE( 0.02539999999999999900 ), #35 );
#65 = LENGTH_MEASURE_WITH_UNIT ( LENGTH_MEASURE( 0.02539999999999999900 ), #50 );
#66 = MECHANICAL_DESIGN_GEOMETRIC_PRESENTATION_REPRESENTATION (  '', ( #130 ), #132 ) ;
#67 = PRESENTATION_LAYER_ASSIGNMENT (  '', '', ( #130 ) ) ;
#68 = AXIS2_PLACEMENT_3D ( 'NONE', #26, #27, #28 ) ;
#69 = UNCERTAINTY_MEASURE_WITH_UNIT (LENGTH_MEASURE( 1.000000000000000100E-005 ), #36, 'distance_accuracy_value', 'NONE');
#70 = UNCERTAINTY_MEASURE_WITH_UNIT (LENGTH_MEASURE( 1.000000000000000100E-005 ), #51, 'distance_accuracy_value', 'NONE');
#71 = UNCERTAINTY_MEASURE_WITH_UNIT (LENGTH_MEASURE( 1.000000000000000100E-005 ), #85, 'distance_accuracy_value', 'NONE');
#72 = UNCERTAINTY_MEASURE_WITH_UNIT (LENGTH_MEASURE( 1.000000000000000100E-005 ), #40, 'distance_accuracy_value', 'NONE');
#73 = UNCERTAINTY_MEASURE_WITH_UNIT (LENGTH_MEASURE( 1.000000000000000100E-005 ), #17, 'distance_accuracy_value', 'NONE');
#74 = ADVANCED_BREP_SHAPE_REPRESENTATION ( 'S1000H', ( #133, #9 ), #113 ) ;
#75 = DIRECTION ( 'NONE',  ( -0.0000000000000000000, -0.0000000000000000000, -1.000000000000000000 ) ) ;
#76 = CARTESIAN_POINT ( 'NONE',  ( 0.0000000000000000000, 0.0000000000000000000, 0.0000000000000000000 ) ) ;
#77 =( NAMED_UNIT ( * ) SI_UNIT ( $, .STERADIAN. ) SOLID_ANGLE_UNIT ( ) );
#78 =( NAMED_UNIT ( * ) PLANE_ANGLE_UNIT ( ) SI_UNIT ( $, .RADIAN. ) );
#79 = DIMENSIONAL_EXPONENTS ( 1.000000000000000000, 0.0000000000000000000, 0.0000000000000000000, 0.0000000000000000000, 0.0000000000000000000, 0.0000000000000000000, 0.0000000000000000000 ) ;
#80 = DIMENSIONAL_EXPONENTS ( 1.000000000000000000, 0.0000000000000000000, 0.0000000000000000000, 0.0000000000000000000, 0.0000000000000000000, 0.0000000000000000000, 0.0000000000000000000 ) ;
#81 = PRODUCT ( 'S1000H', 'S1000H', '', ( #58 ) ) ;
#82 = DIMENSIONAL_EXPONENTS ( 1.000000000000000000, 0.0000000000000000000, 0.0000000000000000000, 0.0000000000000000000, 0.0000000000000000000, 0.0000000000000000000, 0.0000000000000000000 ) ;
#83 = DIMENSIONAL_EXPONENTS ( 1.000000000000000000, 0.0000000000000000000, 0.0000000000000000000, 0.0000000000000000000, 0.0000000000000000000, 0.0000000000000000000, 0.0000000000000000000 ) ;
#84 = DIMENSIONAL_EXPONENTS ( 1.000000000000000000, 0.0000000000000000000, 0.0000000000000000000, 0.0000000000000000000, 0.0000000000000000000, 0.0000000000000000000, 0.0000000000000000000 ) ;
#85 =( CONVERSION_BASED_UNIT ( 'INCH', #131 ) LENGTH_UNIT ( ) NAMED_UNIT ( #83 ) );
#86 =( LENGTH_UNIT ( ) NAMED_UNIT ( * ) SI_UNIT ( $, .METRE. ) );
#87 = PRESENTATION_STYLE_ASSIGNMENT (( #88 ) ) ;
#88 = SURFACE_STYLE_USAGE ( .BOTH. , #89 ) ;
#89 = SURFACE_SIDE_STYLE ('',( #91 ) ) ;
#90 = FILL_AREA_STYLE_COLOUR ( '', #96 ) ;
#91 = SURFACE_STYLE_FILL_AREA ( #92 ) ;
#92 = FILL_AREA_STYLE ('',( #90 ) ) ;
#93 = ORIENTED_EDGE ( 'NONE', *, *, #104, .T. ) ;
#94 = CARTESIAN_POINT ( 'NONE',  ( -3.061616997868383000E-017, 0.5000000000000000000, 0.0000000000000000000 ) ) ;
#95 = CARTESIAN_POINT ( 'NONE',  ( -3.061616997868383000E-017, -0.5000000000000000000, 0.0000000000000000000 ) ) ;
#96 = COLOUR_RGB ( '',0.5686274509803921400, 0.5686274509803921400, 0.5882352941176470800 ) ;
#97 = COLOUR_RGB ( '',0.5686274509803921400, 0.5686274509803921400, 0.5882352941176470800 ) ;
#98 = CIRCLE ( 'NONE', #68, 0.5000000000000000000 ) ;
#99 = CIRCLE ( 'NONE', #117, 0.5000000000000000000 ) ;
#100 = COLOUR_RGB ( '',0.5686274509803921400, 0.5686274509803921400, 0.5882352941176470800 ) ;
#101 = COLOUR_RGB ( '',0.5686274509803921400, 0.5686274509803921400, 0.5882352941176470800 ) ;
#102 = ADVANCED_FACE ( 'NONE', ( #126 ), #127, .T. ) ;
#103 = ADVANCED_FACE ( 'NONE', ( #119 ), #116, .T. ) ;
#104 = EDGE_CURVE ( 'NONE', #5, #6, #99, .T. ) ;
#105 = EDGE_CURVE ( 'NONE', #5, #6, #98, .T. ) ;
#106 = PRODUCT_DEFINITION ( 'UNKNOWN', '', #10, #135 ) ;
#107 = APPLICATION_CONTEXT ( 'automotive_design' ) ;
#108 = APPLICATION_CONTEXT ( 'automotive_design' ) ;
#109 = FILL_AREA_STYLE_COLOUR ( '', #97 ) ;
#110 =( GEOMETRIC_REPRESENTATION_CONTEXT ( 3 ) GLOBAL_UNCERTAINTY_ASSIGNED_CONTEXT ( ( #71 ) ) GLOBAL_UNIT_ASSIGNED_CONTEXT ( ( #85, #78, #77 ) ) REPRESENTATION_CONTEXT ( 'NONE', 'WORKASPACE' ) );
#111 =( GEOMETRIC_REPRESENTATION_CONTEXT ( 3 ) GLOBAL_UNCERTAINTY_ASSIGNED_CONTEXT ( ( #73 ) ) GLOBAL_UNIT_ASSIGNED_CONTEXT ( ( #17, #18, #19 ) ) REPRESENTATION_CONTEXT ( 'NONE', 'WORKASPACE' ) );
#112 = PRODUCT_RELATED_PRODUCT_CATEGORY ( 'part', '', ( #81 ) ) ;
#113 =( GEOMETRIC_REPRESENTATION_CONTEXT ( 3 ) GLOBAL_UNCERTAINTY_ASSIGNED_CONTEXT ( ( #72 ) ) GLOBAL_UNIT_ASSIGNED_CONTEXT ( ( #40, #41, #42 ) ) REPRESENTATION_CONTEXT ( 'NONE', 'WORKASPACE' ) );
#114 =( GEOMETRIC_REPRESENTATION_CONTEXT ( 3 ) GLOBAL_UNCERTAINTY_ASSIGNED_CONTEXT ( ( #70 ) ) GLOBAL_UNIT_ASSIGNED_CONTEXT ( ( #51, #52, #53 ) ) REPRESENTATION_CONTEXT ( 'NONE', 'WORKASPACE' ) );
#115 = AXIS2_PLACEMENT_3D ( 'NONE', #20, #21, #22 ) ;
#116 = SPHERICAL_SURFACE ( 'NONE', #115, 0.5000000000000000000 ) ;
#117 = AXIS2_PLACEMENT_3D ( 'NONE', #23, #24, #25 ) ;
#118 = STYLED_ITEM ( 'NONE', ( #15 ), #103 ) ;
#119 = FACE_OUTER_BOUND ( 'NONE', #7, .T. ) ;
#120 = PRESENTATION_LAYER_ASSIGNMENT (  '', '', ( #118 ) ) ;
#121 = MECHANICAL_DESIGN_GEOMETRIC_PRESENTATION_REPRESENTATION (  '', ( #118 ), #111 ) ;
#122 = LENGTH_MEASURE_WITH_UNIT ( LENGTH_MEASURE( 0.02539999999999999900 ), #16 );
#123 = STYLED_ITEM ( 'NONE', ( #87 ), #102 ) ;
#124 = PRESENTATION_LAYER_ASSIGNMENT (  '', '', ( #123 ) ) ;
#125 = CLOSED_SHELL ( 'NONE', ( #103, #102 ) ) ;
#126 = FACE_OUTER_BOUND ( 'NONE', #8, .T. ) ;
#127 = SPHERICAL_SURFACE ( 'NONE', #129, 0.5000000000000000000 ) ;
#128 = MECHANICAL_DESIGN_GEOMETRIC_PRESENTATION_REPRESENTATION (  '', ( #123 ), #110 ) ;
#129 = AXIS2_PLACEMENT_3D ( 'NONE', #76, #75, #1 ) ;
#130 = STYLED_ITEM ( 'NONE', ( #34 ), #133 ) ;
#131 = LENGTH_MEASURE_WITH_UNIT ( LENGTH_MEASURE( 0.02539999999999999900 ), #86 );
#132 =( GEOMETRIC_REPRESENTATION_CONTEXT ( 3 ) GLOBAL_UNCERTAINTY_ASSIGNED_CONTEXT ( ( #69 ) ) GLOBAL_UNIT_ASSIGNED_CONTEXT ( ( #36, #37, #38 ) ) REPRESENTATION_CONTEXT ( 'NONE', 'WORKASPACE' ) );
#133 = MANIFOLD_SOLID_BREP ( 'Revolve1', #125 ) ;
#134 = PRODUCT_DEFINITION_SHAPE ( 'NONE', 'NONE',  #106 ) ;
#135 = PRODUCT_DEFINITION_CONTEXT ( 'detailed design', #107, 'design' ) ;
ENDSEC;
END-ISO-10303-21;
