ISO-10303-21;
HEADER;
FILE_DESCRIPTION (( 'STEP AP214' ),
    '1' );
FILE_NAME ('S1250J.step',
    '2012-04-20T21:06:48',
    ( '' ),
    ( '' ),
    'SwSTEP 2.0',
    'SolidWorks 2012',
    '' );
FILE_SCHEMA (( 'AUTOMOTIVE_DESIGN' ));
ENDSEC;

DATA;
#1 = DIRECTION ( 'NONE',  ( -0.0000000000000000000, -0.0000000000000000000, -1.000000000000000000 ) ) ;
#2 = ORIENTED_EDGE ( 'NONE', *, *, #104, .F. ) ;
#3 = VERTEX_POINT ( 'NONE', #35 ) ;
#4 = EDGE_LOOP ( 'NONE', ( #38, #36 ) ) ;
#5 = VERTEX_POINT ( 'NONE', #34 ) ;
#6 = EDGE_LOOP ( 'NONE', ( #2, #37 ) ) ;
#7 = MECHANICAL_DESIGN_GEOMETRIC_PRESENTATION_REPRESENTATION (  '', ( #119 ), #132 ) ;
#8 = LENGTH_MEASURE_WITH_UNIT ( LENGTH_MEASURE( 0.02539999999999999900 ), #81 );
#9 = PRODUCT_DEFINITION_FORMATION_WITH_SPECIFIED_SOURCE ( 'ANY', '', #20, .NOT_KNOWN. ) ;
#10 = PRESENTATION_LAYER_ASSIGNMENT (  '', '', ( #119 ) ) ;
#11 = AXIS2_PLACEMENT_3D ( 'NONE', #85, #86, #87 ) ;
#12 = UNCERTAINTY_MEASURE_WITH_UNIT (LENGTH_MEASURE( 1.000000000000000100E-005 ), #48, 'distance_accuracy_value', 'NONE');
#13 = UNCERTAINTY_MEASURE_WITH_UNIT (LENGTH_MEASURE( 1.000000000000000100E-005 ), #27, 'distance_accuracy_value', 'NONE');
#14 = UNCERTAINTY_MEASURE_WITH_UNIT (LENGTH_MEASURE( 1.000000000000000100E-005 ), #82, 'distance_accuracy_value', 'NONE');
#15 = ADVANCED_BREP_SHAPE_REPRESENTATION ( 'S1250J', ( #134, #11 ), #131 ) ;
#16 = UNCERTAINTY_MEASURE_WITH_UNIT (LENGTH_MEASURE( 1.000000000000000100E-005 ), #71, 'distance_accuracy_value', 'NONE');
#17 = UNCERTAINTY_MEASURE_WITH_UNIT (LENGTH_MEASURE( 1.000000000000000100E-005 ), #67, 'distance_accuracy_value', 'NONE');
#18 =( NAMED_UNIT ( * ) PLANE_ANGLE_UNIT ( ) SI_UNIT ( $, .RADIAN. ) );
#19 =( NAMED_UNIT ( * ) SI_UNIT ( $, .STERADIAN. ) SOLID_ANGLE_UNIT ( ) );
#20 = PRODUCT ( 'S1250J', 'S1250J', '', ( #89 ) ) ;
#21 = DIMENSIONAL_EXPONENTS ( 1.000000000000000000, 0.0000000000000000000, 0.0000000000000000000, 0.0000000000000000000, 0.0000000000000000000, 0.0000000000000000000, 0.0000000000000000000 ) ;
#22 = DIMENSIONAL_EXPONENTS ( 1.000000000000000000, 0.0000000000000000000, 0.0000000000000000000, 0.0000000000000000000, 0.0000000000000000000, 0.0000000000000000000, 0.0000000000000000000 ) ;
#23 = DIMENSIONAL_EXPONENTS ( 1.000000000000000000, 0.0000000000000000000, 0.0000000000000000000, 0.0000000000000000000, 0.0000000000000000000, 0.0000000000000000000, 0.0000000000000000000 ) ;
#24 = DIMENSIONAL_EXPONENTS ( 1.000000000000000000, 0.0000000000000000000, 0.0000000000000000000, 0.0000000000000000000, 0.0000000000000000000, 0.0000000000000000000, 0.0000000000000000000 ) ;
#25 = DIMENSIONAL_EXPONENTS ( 1.000000000000000000, 0.0000000000000000000, 0.0000000000000000000, 0.0000000000000000000, 0.0000000000000000000, 0.0000000000000000000, 0.0000000000000000000 ) ;
#26 =( LENGTH_UNIT ( ) NAMED_UNIT ( * ) SI_UNIT ( $, .METRE. ) );
#27 =( CONVERSION_BASED_UNIT ( 'INCH', #125 ) LENGTH_UNIT ( ) NAMED_UNIT ( #21 ) );
#28 = PRESENTATION_STYLE_ASSIGNMENT (( #29 ) ) ;
#29 = SURFACE_STYLE_USAGE ( .BOTH. , #30 ) ;
#30 = SURFACE_SIDE_STYLE ('',( #31 ) ) ;
#31 = SURFACE_STYLE_FILL_AREA ( #32 ) ;
#32 = FILL_AREA_STYLE ('',( #33 ) ) ;
#33 = FILL_AREA_STYLE_COLOUR ( '', #94 ) ;
#34 = CARTESIAN_POINT ( 'NONE',  ( -3.827021247335478900E-017, -0.6250000000000000000, 0.0000000000000000000 ) ) ;
#35 = CARTESIAN_POINT ( 'NONE',  ( -3.827021247335478900E-017, 0.6250000000000000000, 0.0000000000000000000 ) ) ;
#36 = ORIENTED_EDGE ( 'NONE', *, *, #104, .T. ) ;
#37 = ORIENTED_EDGE ( 'NONE', *, *, #103, .T. ) ;
#38 = ORIENTED_EDGE ( 'NONE', *, *, #103, .F. ) ;
#39 = PRODUCT_RELATED_PRODUCT_CATEGORY ( 'part', '', ( #20 ) ) ;
#40 = DIRECTION ( 'NONE',  ( -1.000000000000000000, 0.0000000000000000000, 0.0000000000000000000 ) ) ;
#41 = FILL_AREA_STYLE_COLOUR ( '', #105 ) ;
#42 = FILL_AREA_STYLE ('',( #41 ) ) ;
#43 = SURFACE_STYLE_FILL_AREA ( #42 ) ;
#44 = SURFACE_SIDE_STYLE ('',( #43 ) ) ;
#45 = SURFACE_STYLE_USAGE ( .BOTH. , #44 ) ;
#46 = PRESENTATION_STYLE_ASSIGNMENT (( #45 ) ) ;
#47 =( LENGTH_UNIT ( ) NAMED_UNIT ( * ) SI_UNIT ( $, .METRE. ) );
#48 =( CONVERSION_BASED_UNIT ( 'INCH', #111 ) LENGTH_UNIT ( ) NAMED_UNIT ( #25 ) );
#49 =( NAMED_UNIT ( * ) PLANE_ANGLE_UNIT ( ) SI_UNIT ( $, .RADIAN. ) );
#50 =( NAMED_UNIT ( * ) SI_UNIT ( $, .STERADIAN. ) SOLID_ANGLE_UNIT ( ) );
#51 = CARTESIAN_POINT ( 'NONE',  ( 0.0000000000000000000, 0.0000000000000000000, 0.0000000000000000000 ) ) ;
#52 = DIRECTION ( 'NONE',  ( -0.0000000000000000000, -0.0000000000000000000, -1.000000000000000000 ) ) ;
#53 = DIRECTION ( 'NONE',  ( -1.000000000000000000, 0.0000000000000000000, 0.0000000000000000000 ) ) ;
#54 = CARTESIAN_POINT ( 'NONE',  ( 0.0000000000000000000, 0.0000000000000000000, 0.0000000000000000000 ) ) ;
#55 = DIRECTION ( 'NONE',  ( -1.224646799147353200E-016, 0.0000000000000000000, -1.000000000000000000 ) ) ;
#56 = DIRECTION ( 'NONE',  ( -1.000000000000000000, 0.0000000000000000000, 1.224646799147353200E-016 ) ) ;
#57 = CARTESIAN_POINT ( 'NONE',  ( 0.0000000000000000000, 0.0000000000000000000, 0.0000000000000000000 ) ) ;
#58 = DIRECTION ( 'NONE',  ( -0.0000000000000000000, 0.0000000000000000000, 1.000000000000000000 ) ) ;
#59 = DIRECTION ( 'NONE',  ( 1.000000000000000000, 0.0000000000000000000, 0.0000000000000000000 ) ) ;
#60 = FILL_AREA_STYLE_COLOUR ( '', #97 ) ;
#61 = FILL_AREA_STYLE ('',( #60 ) ) ;
#62 = SURFACE_STYLE_FILL_AREA ( #61 ) ;
#63 = SURFACE_SIDE_STYLE ('',( #62 ) ) ;
#64 = SURFACE_STYLE_USAGE ( .BOTH. , #63 ) ;
#65 = PRESENTATION_STYLE_ASSIGNMENT (( #64 ) ) ;
#66 =( LENGTH_UNIT ( ) NAMED_UNIT ( * ) SI_UNIT ( $, .METRE. ) );
#67 =( CONVERSION_BASED_UNIT ( 'INCH', #112 ) LENGTH_UNIT ( ) NAMED_UNIT ( #23 ) );
#68 =( NAMED_UNIT ( * ) PLANE_ANGLE_UNIT ( ) SI_UNIT ( $, .RADIAN. ) );
#69 =( NAMED_UNIT ( * ) SI_UNIT ( $, .STERADIAN. ) SOLID_ANGLE_UNIT ( ) );
#70 =( LENGTH_UNIT ( ) NAMED_UNIT ( * ) SI_UNIT ( $, .METRE. ) );
#71 =( CONVERSION_BASED_UNIT ( 'INCH', #110 ) LENGTH_UNIT ( ) NAMED_UNIT ( #24 ) );
#72 =( NAMED_UNIT ( * ) PLANE_ANGLE_UNIT ( ) SI_UNIT ( $, .RADIAN. ) );
#73 =( NAMED_UNIT ( * ) SI_UNIT ( $, .STERADIAN. ) SOLID_ANGLE_UNIT ( ) );
#74 = APPLICATION_PROTOCOL_DEFINITION ( 'draft international standard', 'automotive_design', 1998, #92 ) ;
#75 = FILL_AREA_STYLE_COLOUR ( '', #98 ) ;
#76 = FILL_AREA_STYLE ('',( #75 ) ) ;
#77 = SURFACE_STYLE_FILL_AREA ( #76 ) ;
#78 = SURFACE_SIDE_STYLE ('',( #77 ) ) ;
#79 = SURFACE_STYLE_USAGE ( .BOTH. , #78 ) ;
#80 = PRESENTATION_STYLE_ASSIGNMENT (( #79 ) ) ;
#81 =( LENGTH_UNIT ( ) NAMED_UNIT ( * ) SI_UNIT ( $, .METRE. ) );
#82 =( CONVERSION_BASED_UNIT ( 'INCH', #8 ) LENGTH_UNIT ( ) NAMED_UNIT ( #22 ) );
#83 =( NAMED_UNIT ( * ) PLANE_ANGLE_UNIT ( ) SI_UNIT ( $, .RADIAN. ) );
#84 =( NAMED_UNIT ( * ) SI_UNIT ( $, .STERADIAN. ) SOLID_ANGLE_UNIT ( ) );
#85 = CARTESIAN_POINT ( 'NONE',  ( 0.0000000000000000000, 0.0000000000000000000, 0.0000000000000000000 ) ) ;
#86 = DIRECTION ( 'NONE',  ( 0.0000000000000000000, 0.0000000000000000000, 1.000000000000000000 ) ) ;
#87 = DIRECTION ( 'NONE',  ( 1.000000000000000000, 0.0000000000000000000, 0.0000000000000000000 ) ) ;
#88 = SHAPE_DEFINITION_REPRESENTATION ( #135, #15 ) ;
#89 = PRODUCT_CONTEXT ( 'NONE', #92, 'mechanical' ) ;
#90 = APPLICATION_PROTOCOL_DEFINITION ( 'draft international standard', 'automotive_design', 1998, #91 ) ;
#91 = APPLICATION_CONTEXT ( 'automotive_design' ) ;
#92 = APPLICATION_CONTEXT ( 'automotive_design' ) ;
#93 = CARTESIAN_POINT ( 'NONE',  ( 0.0000000000000000000, 0.0000000000000000000, 0.0000000000000000000 ) ) ;
#94 = COLOUR_RGB ( '',0.5686274509803921400, 0.5686274509803921400, 0.5882352941176470800 ) ;
#95 = CIRCLE ( 'NONE', #109, 0.6250000000000000000 ) ;
#96 = CIRCLE ( 'NONE', #108, 0.6250000000000000000 ) ;
#97 = COLOUR_RGB ( '',0.5686274509803921400, 0.5686274509803921400, 0.5882352941176470800 ) ;
#98 = COLOUR_RGB ( '',0.5686274509803921400, 0.5686274509803921400, 0.5882352941176470800 ) ;
#99 = PRODUCT_DEFINITION ( 'UNKNOWN', '', #9, #133 ) ;
#100 =( GEOMETRIC_REPRESENTATION_CONTEXT ( 3 ) GLOBAL_UNCERTAINTY_ASSIGNED_CONTEXT ( ( #17 ) ) GLOBAL_UNIT_ASSIGNED_CONTEXT ( ( #67, #68, #69 ) ) REPRESENTATION_CONTEXT ( 'NONE', 'WORKASPACE' ) );
#101 = ADVANCED_FACE ( 'NONE', ( #123 ), #124, .T. ) ;
#102 = ADVANCED_FACE ( 'NONE', ( #120 ), #117, .T. ) ;
#103 = EDGE_CURVE ( 'NONE', #3, #5, #95, .T. ) ;
#104 = EDGE_CURVE ( 'NONE', #3, #5, #96, .T. ) ;
#105 = COLOUR_RGB ( '',0.5686274509803921400, 0.5686274509803921400, 0.5882352941176470800 ) ;
#106 =( GEOMETRIC_REPRESENTATION_CONTEXT ( 3 ) GLOBAL_UNCERTAINTY_ASSIGNED_CONTEXT ( ( #13 ) ) GLOBAL_UNIT_ASSIGNED_CONTEXT ( ( #27, #18, #19 ) ) REPRESENTATION_CONTEXT ( 'NONE', 'WORKASPACE' ) );
#107 =( GEOMETRIC_REPRESENTATION_CONTEXT ( 3 ) GLOBAL_UNCERTAINTY_ASSIGNED_CONTEXT ( ( #12 ) ) GLOBAL_UNIT_ASSIGNED_CONTEXT ( ( #48, #49, #50 ) ) REPRESENTATION_CONTEXT ( 'NONE', 'WORKASPACE' ) );
#108 = AXIS2_PLACEMENT_3D ( 'NONE', #57, #58, #59 ) ;
#109 = AXIS2_PLACEMENT_3D ( 'NONE', #54, #55, #56 ) ;
#110 = LENGTH_MEASURE_WITH_UNIT ( LENGTH_MEASURE( 0.02539999999999999900 ), #70 );
#111 = LENGTH_MEASURE_WITH_UNIT ( LENGTH_MEASURE( 0.02539999999999999900 ), #47 );
#112 = LENGTH_MEASURE_WITH_UNIT ( LENGTH_MEASURE( 0.02539999999999999900 ), #66 );
#113 = MECHANICAL_DESIGN_GEOMETRIC_PRESENTATION_REPRESENTATION (  '', ( #116 ), #107 ) ;
#114 = PRESENTATION_LAYER_ASSIGNMENT (  '', '', ( #116 ) ) ;
#115 = MECHANICAL_DESIGN_GEOMETRIC_PRESENTATION_REPRESENTATION (  '', ( #130 ), #100 ) ;
#116 = STYLED_ITEM ( 'NONE', ( #46 ), #102 ) ;
#117 = SPHERICAL_SURFACE ( 'NONE', #118, 0.6250000000000000000 ) ;
#118 = AXIS2_PLACEMENT_3D ( 'NONE', #51, #52, #53 ) ;
#119 = STYLED_ITEM ( 'NONE', ( #80 ), #15 ) ;
#120 = FACE_OUTER_BOUND ( 'NONE', #6, .T. ) ;
#121 = PRESENTATION_LAYER_ASSIGNMENT (  '', '', ( #130 ) ) ;
#122 = PRESENTATION_LAYER_ASSIGNMENT (  '', '', ( #126 ) ) ;
#123 = FACE_OUTER_BOUND ( 'NONE', #4, .T. ) ;
#124 = SPHERICAL_SURFACE ( 'NONE', #128, 0.6250000000000000000 ) ;
#125 = LENGTH_MEASURE_WITH_UNIT ( LENGTH_MEASURE( 0.02539999999999999900 ), #26 );
#126 = STYLED_ITEM ( 'NONE', ( #28 ), #101 ) ;
#127 = MECHANICAL_DESIGN_GEOMETRIC_PRESENTATION_REPRESENTATION (  '', ( #126 ), #106 ) ;
#128 = AXIS2_PLACEMENT_3D ( 'NONE', #93, #1, #40 ) ;
#129 = CLOSED_SHELL ( 'NONE', ( #102, #101 ) ) ;
#130 = STYLED_ITEM ( 'NONE', ( #65 ), #134 ) ;
#131 =( GEOMETRIC_REPRESENTATION_CONTEXT ( 3 ) GLOBAL_UNCERTAINTY_ASSIGNED_CONTEXT ( ( #16 ) ) GLOBAL_UNIT_ASSIGNED_CONTEXT ( ( #71, #72, #73 ) ) REPRESENTATION_CONTEXT ( 'NONE', 'WORKASPACE' ) );
#132 =( GEOMETRIC_REPRESENTATION_CONTEXT ( 3 ) GLOBAL_UNCERTAINTY_ASSIGNED_CONTEXT ( ( #14 ) ) GLOBAL_UNIT_ASSIGNED_CONTEXT ( ( #82, #83, #84 ) ) REPRESENTATION_CONTEXT ( 'NONE', 'WORKASPACE' ) );
#133 = PRODUCT_DEFINITION_CONTEXT ( 'detailed design', #91, 'design' ) ;
#134 = MANIFOLD_SOLID_BREP ( 'Revolve1', #129 ) ;
#135 = PRODUCT_DEFINITION_SHAPE ( 'NONE', 'NONE',  #99 ) ;
ENDSEC;
END-ISO-10303-21;
