ISO-10303-21;
HEADER;
FILE_DESCRIPTION (( 'STEP AP214' ),
    '1' );
FILE_NAME ('T250B-AU.step',
    '2012-04-20T21:07:21',
    ( '' ),
    ( '' ),
    'SwSTEP 2.0',
    'SolidWorks 2012',
    '' );
FILE_SCHEMA (( 'AUTOMOTIVE_DESIGN' ));
ENDSEC;

DATA;
#1 = CIRCLE ( 'NONE', #191, 0.05450000000000000000 ) ;
#2 = EDGE_CURVE ( 'NONE', #154, #149, #1, .T. ) ;
#3 = EDGE_CURVE ( 'NONE', #154, #153, #74, .T. ) ;
#4 = EDGE_CURVE ( 'NONE', #156, #150, #23, .T. ) ;
#5 = EDGE_CURVE ( 'NONE', #155, #153, #22, .T. ) ;
#6 = EDGE_CURVE ( 'NONE', #150, #156, #21, .T. ) ;
#7 = EDGE_CURVE ( 'NONE', #151, #156, #62, .T. ) ;
#8 = EDGE_CURVE ( 'NONE', #152, #150, #59, .T. ) ;
#9 = EDGE_CURVE ( 'NONE', #149, #155, #56, .T. ) ;
#10 = EDGE_CURVE ( 'NONE', #152, #151, #20, .T. ) ;
#11 = EDGE_CURVE ( 'NONE', #151, #152, #19, .T. ) ;
#12 = EDGE_CURVE ( 'NONE', #153, #155, #18, .T. ) ;
#13 = PRODUCT_RELATED_PRODUCT_CATEGORY ( 'part', '', ( #35 ) ) ;
#14 = PRODUCT_DEFINITION ( 'UNKNOWN', '', #31, #52 ) ;
#15 = COLOUR_RGB ( '',0.9686274509803921600, 0.8784313725490196000, 0.5999999999999999800 ) ;
#16 = COLOUR_RGB ( '',0.9686274509803921600, 0.8784313725490196000, 0.5999999999999999800 ) ;
#17 = CIRCLE ( 'NONE', #42, 0.05450000000000000000 ) ;
#18 = CIRCLE ( 'NONE', #201, 0.05450000000000000000 ) ;
#19 = CIRCLE ( 'NONE', #199, 0.1250000000000000000 ) ;
#20 = CIRCLE ( 'NONE', #189, 0.1250000000000000000 ) ;
#21 = CIRCLE ( 'NONE', #196, 0.1250000000000000000 ) ;
#22 = CIRCLE ( 'NONE', #195, 0.05450000000000000000 ) ;
#23 = CIRCLE ( 'NONE', #193, 0.1250000000000000000 ) ;
#24 = ADVANCED_FACE ( 'NONE', ( #192 ), #216, .T. ) ;
#25 = ADVANCED_FACE ( 'NONE', ( #200 ), #222, .F. ) ;
#26 = ADVANCED_FACE ( 'NONE', ( #217, #219 ), #136, .T. ) ;
#27 = ADVANCED_FACE ( 'NONE', ( #220, #223 ), #132, .F. ) ;
#28 = EDGE_CURVE ( 'NONE', #149, #154, #17, .T. ) ;
#29 = ADVANCED_FACE ( 'NONE', ( #218 ), #41, .T. ) ;
#30 = ADVANCED_FACE ( 'NONE', ( #43 ), #38, .F. ) ;
#31 = PRODUCT_DEFINITION_FORMATION_WITH_SPECIFIED_SOURCE ( 'ANY', '', #35, .NOT_KNOWN. ) ;
#32 = DIMENSIONAL_EXPONENTS ( 1.000000000000000000, 0.0000000000000000000, 0.0000000000000000000, 0.0000000000000000000, 0.0000000000000000000, 0.0000000000000000000, 0.0000000000000000000 ) ;
#33 = DIMENSIONAL_EXPONENTS ( 1.000000000000000000, 0.0000000000000000000, 0.0000000000000000000, 0.0000000000000000000, 0.0000000000000000000, 0.0000000000000000000, 0.0000000000000000000 ) ;
#34 = DIMENSIONAL_EXPONENTS ( 1.000000000000000000, 0.0000000000000000000, 0.0000000000000000000, 0.0000000000000000000, 0.0000000000000000000, 0.0000000000000000000, 0.0000000000000000000 ) ;
#35 = PRODUCT ( 'T250B-AU', 'T250B-AU', '', ( #112 ) ) ;
#36 =( LENGTH_UNIT ( ) NAMED_UNIT ( * ) SI_UNIT ( $, .METRE. ) );
#37 = STYLED_ITEM ( 'NONE', ( #45 ), #53 ) ;
#38 = CYLINDRICAL_SURFACE ( 'NONE', #44, 0.05450000000000000000 ) ;
#39 = AXIS2_PLACEMENT_3D ( 'NONE', #118, #117, #116 ) ;
#40 = AXIS2_PLACEMENT_3D ( 'NONE', #131, #130, #128 ) ;
#41 = CYLINDRICAL_SURFACE ( 'NONE', #39, 0.1250000000000000000 ) ;
#42 = AXIS2_PLACEMENT_3D ( 'NONE', #121, #120, #119 ) ;
#43 = FACE_OUTER_BOUND ( 'NONE', #157, .T. ) ;
#44 = AXIS2_PLACEMENT_3D ( 'NONE', #115, #114, #147 ) ;
#45 = PRESENTATION_STYLE_ASSIGNMENT (( #46 ) ) ;
#46 = SURFACE_STYLE_USAGE ( .BOTH. , #47 ) ;
#47 = SURFACE_SIDE_STYLE ('',( #144 ) ) ;
#48 = MECHANICAL_DESIGN_GEOMETRIC_PRESENTATION_REPRESENTATION (  '', ( #37 ), #125 ) ;
#49 = PRESENTATION_LAYER_ASSIGNMENT (  '', '', ( #37 ) ) ;
#50 = LENGTH_MEASURE_WITH_UNIT ( LENGTH_MEASURE( 0.02539999999999999900 ), #36 );
#51 = PRODUCT_DEFINITION_SHAPE ( 'NONE', 'NONE',  #14 ) ;
#52 = PRODUCT_DEFINITION_CONTEXT ( 'detailed design', #213, 'design' ) ;
#53 = MANIFOLD_SOLID_BREP ( 'Boss-Extrude1', #190 ) ;
#54 = DIRECTION ( 'NONE',  ( -0.0000000000000000000, -0.0000000000000000000, -1.000000000000000000 ) ) ;
#55 = CARTESIAN_POINT ( 'NONE',  ( -0.05450000000000000000, 0.0000000000000000000, 0.2500000000000000000 ) ) ;
#56 = LINE ( 'NONE', #55, #198 ) ;
#57 = DIRECTION ( 'NONE',  ( -0.0000000000000000000, -0.0000000000000000000, -1.000000000000000000 ) ) ;
#58 = CARTESIAN_POINT ( 'NONE',  ( 0.1250000000000000000, 1.530808498934191500E-017, 0.2500000000000000000 ) ) ;
#59 = LINE ( 'NONE', #58, #202 ) ;
#60 = DIRECTION ( 'NONE',  ( -0.0000000000000000000, -0.0000000000000000000, -1.000000000000000000 ) ) ;
#61 = CARTESIAN_POINT ( 'NONE',  ( -0.1250000000000000000, 0.0000000000000000000, 0.2500000000000000000 ) ) ;
#62 = LINE ( 'NONE', #61, #197 ) ;
#63 = CARTESIAN_POINT ( 'NONE',  ( 0.0000000000000000000, 0.0000000000000000000, 0.2500000000000000000 ) ) ;
#64 = DIRECTION ( 'NONE',  ( 1.000000000000000000, 0.0000000000000000000, 0.0000000000000000000 ) ) ;
#65 = DIRECTION ( 'NONE',  ( 0.0000000000000000000, 0.0000000000000000000, 1.000000000000000000 ) ) ;
#66 = CARTESIAN_POINT ( 'NONE',  ( 0.0000000000000000000, 0.0000000000000000000, 0.0000000000000000000 ) ) ;
#67 = DIRECTION ( 'NONE',  ( 1.000000000000000000, 0.0000000000000000000, 0.0000000000000000000 ) ) ;
#68 = DIRECTION ( 'NONE',  ( 0.0000000000000000000, 0.0000000000000000000, 1.000000000000000000 ) ) ;
#69 = CARTESIAN_POINT ( 'NONE',  ( 0.0000000000000000000, 0.0000000000000000000, 0.0000000000000000000 ) ) ;
#70 = DIRECTION ( 'NONE',  ( 1.000000000000000000, 0.0000000000000000000, 0.0000000000000000000 ) ) ;
#71 = DIRECTION ( 'NONE',  ( 0.0000000000000000000, 0.0000000000000000000, 1.000000000000000000 ) ) ;
#72 = DIRECTION ( 'NONE',  ( -0.0000000000000000000, -0.0000000000000000000, -1.000000000000000000 ) ) ;
#73 = CARTESIAN_POINT ( 'NONE',  ( 0.05450000000000000000, 6.674325055353074800E-018, 0.2500000000000000000 ) ) ;
#74 = LINE ( 'NONE', #73, #194 ) ;
#75 = CARTESIAN_POINT ( 'NONE',  ( 0.0000000000000000000, 0.0000000000000000000, 0.0000000000000000000 ) ) ;
#76 = DIRECTION ( 'NONE',  ( 1.000000000000000000, 0.0000000000000000000, 0.0000000000000000000 ) ) ;
#77 = DIRECTION ( 'NONE',  ( 0.0000000000000000000, 0.0000000000000000000, 1.000000000000000000 ) ) ;
#78 = UNCERTAINTY_MEASURE_WITH_UNIT (LENGTH_MEASURE( 1.000000000000000100E-005 ), #82, 'distance_accuracy_value', 'NONE');
#79 = UNCERTAINTY_MEASURE_WITH_UNIT (LENGTH_MEASURE( 1.000000000000000100E-005 ), #94, 'distance_accuracy_value', 'NONE');
#80 = ADVANCED_BREP_SHAPE_REPRESENTATION ( 'T250B-AU', ( #53, #122 ), #126 ) ;
#81 = UNCERTAINTY_MEASURE_WITH_UNIT (LENGTH_MEASURE( 1.000000000000000100E-005 ), #105, 'distance_accuracy_value', 'NONE');
#82 =( CONVERSION_BASED_UNIT ( 'INCH', #50 ) LENGTH_UNIT ( ) NAMED_UNIT ( #32 ) );
#83 =( NAMED_UNIT ( * ) PLANE_ANGLE_UNIT ( ) SI_UNIT ( $, .RADIAN. ) );
#84 =( NAMED_UNIT ( * ) SI_UNIT ( $, .STERADIAN. ) SOLID_ANGLE_UNIT ( ) );
#85 = CARTESIAN_POINT ( 'NONE',  ( -0.05450000000000000000, 0.0000000000000000000, 0.2500000000000000000 ) ) ;
#86 = CARTESIAN_POINT ( 'NONE',  ( 0.1250000000000000000, 1.530808498934191500E-017, 0.0000000000000000000 ) ) ;
#87 = CARTESIAN_POINT ( 'NONE',  ( -0.1250000000000000000, 0.0000000000000000000, 0.2500000000000000000 ) ) ;
#88 = CARTESIAN_POINT ( 'NONE',  ( 0.1250000000000000000, 1.530808498934191500E-017, 0.2500000000000000000 ) ) ;
#89 = CARTESIAN_POINT ( 'NONE',  ( 0.05450000000000000000, 6.674325055353074800E-018, 0.0000000000000000000 ) ) ;
#90 = CARTESIAN_POINT ( 'NONE',  ( 0.05450000000000000000, 6.674325055353074800E-018, 0.2500000000000000000 ) ) ;
#91 = CARTESIAN_POINT ( 'NONE',  ( -0.05450000000000000000, 0.0000000000000000000, 0.0000000000000000000 ) ) ;
#92 = CARTESIAN_POINT ( 'NONE',  ( -0.1250000000000000000, 0.0000000000000000000, 0.0000000000000000000 ) ) ;
#93 =( LENGTH_UNIT ( ) NAMED_UNIT ( * ) SI_UNIT ( $, .METRE. ) );
#94 =( CONVERSION_BASED_UNIT ( 'INCH', #203 ) LENGTH_UNIT ( ) NAMED_UNIT ( #34 ) );
#95 =( NAMED_UNIT ( * ) PLANE_ANGLE_UNIT ( ) SI_UNIT ( $, .RADIAN. ) );
#96 =( NAMED_UNIT ( * ) SI_UNIT ( $, .STERADIAN. ) SOLID_ANGLE_UNIT ( ) );
#97 = APPLICATION_PROTOCOL_DEFINITION ( 'draft international standard', 'automotive_design', 1998, #212 ) ;
#98 = FILL_AREA_STYLE_COLOUR ( '', #16 ) ;
#99 = FILL_AREA_STYLE ('',( #98 ) ) ;
#100 = SURFACE_STYLE_FILL_AREA ( #99 ) ;
#101 = SURFACE_SIDE_STYLE ('',( #100 ) ) ;
#102 = SURFACE_STYLE_USAGE ( .BOTH. , #101 ) ;
#103 = PRESENTATION_STYLE_ASSIGNMENT (( #102 ) ) ;
#104 =( LENGTH_UNIT ( ) NAMED_UNIT ( * ) SI_UNIT ( $, .METRE. ) );
#105 =( CONVERSION_BASED_UNIT ( 'INCH', #124 ) LENGTH_UNIT ( ) NAMED_UNIT ( #33 ) );
#106 =( NAMED_UNIT ( * ) PLANE_ANGLE_UNIT ( ) SI_UNIT ( $, .RADIAN. ) );
#107 =( NAMED_UNIT ( * ) SI_UNIT ( $, .STERADIAN. ) SOLID_ANGLE_UNIT ( ) );
#108 = CARTESIAN_POINT ( 'NONE',  ( 0.0000000000000000000, 0.0000000000000000000, 0.0000000000000000000 ) ) ;
#109 = DIRECTION ( 'NONE',  ( 0.0000000000000000000, 0.0000000000000000000, 1.000000000000000000 ) ) ;
#110 = DIRECTION ( 'NONE',  ( 1.000000000000000000, 0.0000000000000000000, 0.0000000000000000000 ) ) ;
#111 = SHAPE_DEFINITION_REPRESENTATION ( #51, #80 ) ;
#112 = PRODUCT_CONTEXT ( 'NONE', #212, 'mechanical' ) ;
#113 = APPLICATION_PROTOCOL_DEFINITION ( 'draft international standard', 'automotive_design', 1998, #213 ) ;
#114 = DIRECTION ( 'NONE',  ( -0.0000000000000000000, -0.0000000000000000000, -1.000000000000000000 ) ) ;
#115 = CARTESIAN_POINT ( 'NONE',  ( 0.0000000000000000000, 0.0000000000000000000, 0.2500000000000000000 ) ) ;
#116 = DIRECTION ( 'NONE',  ( -1.000000000000000000, 0.0000000000000000000, 0.0000000000000000000 ) ) ;
#117 = DIRECTION ( 'NONE',  ( -0.0000000000000000000, -0.0000000000000000000, -1.000000000000000000 ) ) ;
#118 = CARTESIAN_POINT ( 'NONE',  ( 0.0000000000000000000, 0.0000000000000000000, 0.2500000000000000000 ) ) ;
#119 = DIRECTION ( 'NONE',  ( 1.000000000000000000, 0.0000000000000000000, 0.0000000000000000000 ) ) ;
#120 = DIRECTION ( 'NONE',  ( 0.0000000000000000000, 0.0000000000000000000, 1.000000000000000000 ) ) ;
#121 = CARTESIAN_POINT ( 'NONE',  ( 0.0000000000000000000, 0.0000000000000000000, 0.2500000000000000000 ) ) ;
#122 = AXIS2_PLACEMENT_3D ( 'NONE', #108, #109, #110 ) ;
#123 = MECHANICAL_DESIGN_GEOMETRIC_PRESENTATION_REPRESENTATION (  '', ( #204 ), #127 ) ;
#124 = LENGTH_MEASURE_WITH_UNIT ( LENGTH_MEASURE( 0.02539999999999999900 ), #104 );
#125 =( GEOMETRIC_REPRESENTATION_CONTEXT ( 3 ) GLOBAL_UNCERTAINTY_ASSIGNED_CONTEXT ( ( #78 ) ) GLOBAL_UNIT_ASSIGNED_CONTEXT ( ( #82, #83, #84 ) ) REPRESENTATION_CONTEXT ( 'NONE', 'WORKASPACE' ) );
#126 =( GEOMETRIC_REPRESENTATION_CONTEXT ( 3 ) GLOBAL_UNCERTAINTY_ASSIGNED_CONTEXT ( ( #79 ) ) GLOBAL_UNIT_ASSIGNED_CONTEXT ( ( #94, #95, #96 ) ) REPRESENTATION_CONTEXT ( 'NONE', 'WORKASPACE' ) );
#127 =( GEOMETRIC_REPRESENTATION_CONTEXT ( 3 ) GLOBAL_UNCERTAINTY_ASSIGNED_CONTEXT ( ( #81 ) ) GLOBAL_UNIT_ASSIGNED_CONTEXT ( ( #105, #106, #107 ) ) REPRESENTATION_CONTEXT ( 'NONE', 'WORKASPACE' ) );
#128 = DIRECTION ( 'NONE',  ( 1.000000000000000000, 0.0000000000000000000, -0.0000000000000000000 ) ) ;
#129 = CARTESIAN_POINT ( 'NONE',  ( 0.0000000000000000000, 0.0000000000000000000, 0.2500000000000000000 ) ) ;
#130 = DIRECTION ( 'NONE',  ( 0.0000000000000000000, 0.0000000000000000000, 1.000000000000000000 ) ) ;
#131 = CARTESIAN_POINT ( 'NONE',  ( 0.0000000000000000000, 0.0000000000000000000, 0.0000000000000000000 ) ) ;
#132 = PLANE ( 'NONE',  #40 ) ;
#133 = DIRECTION ( 'NONE',  ( 1.000000000000000000, 0.0000000000000000000, -0.0000000000000000000 ) ) ;
#134 = DIRECTION ( 'NONE',  ( 0.0000000000000000000, 0.0000000000000000000, 1.000000000000000000 ) ) ;
#135 = CARTESIAN_POINT ( 'NONE',  ( 0.0000000000000000000, 0.0000000000000000000, 0.2500000000000000000 ) ) ;
#136 = PLANE ( 'NONE',  #214 ) ;
#137 = DIRECTION ( 'NONE',  ( -1.000000000000000000, 0.0000000000000000000, 0.0000000000000000000 ) ) ;
#138 = DIRECTION ( 'NONE',  ( -0.0000000000000000000, -0.0000000000000000000, -1.000000000000000000 ) ) ;
#139 = DIRECTION ( 'NONE',  ( -1.000000000000000000, 0.0000000000000000000, 0.0000000000000000000 ) ) ;
#140 = DIRECTION ( 'NONE',  ( -0.0000000000000000000, -0.0000000000000000000, -1.000000000000000000 ) ) ;
#141 = CARTESIAN_POINT ( 'NONE',  ( 0.0000000000000000000, 0.0000000000000000000, 0.2500000000000000000 ) ) ;
#142 = DIRECTION ( 'NONE',  ( 1.000000000000000000, 0.0000000000000000000, 0.0000000000000000000 ) ) ;
#143 = DIRECTION ( 'NONE',  ( 0.0000000000000000000, 0.0000000000000000000, 1.000000000000000000 ) ) ;
#144 = SURFACE_STYLE_FILL_AREA ( #145 ) ;
#145 = FILL_AREA_STYLE ('',( #146 ) ) ;
#146 = FILL_AREA_STYLE_COLOUR ( '', #15 ) ;
#147 = DIRECTION ( 'NONE',  ( -1.000000000000000000, 0.0000000000000000000, 0.0000000000000000000 ) ) ;
#148 = CARTESIAN_POINT ( 'NONE',  ( 0.0000000000000000000, 0.0000000000000000000, 0.2500000000000000000 ) ) ;
#149 = VERTEX_POINT ( 'NONE', #85 ) ;
#150 = VERTEX_POINT ( 'NONE', #86 ) ;
#151 = VERTEX_POINT ( 'NONE', #87 ) ;
#152 = VERTEX_POINT ( 'NONE', #88 ) ;
#153 = VERTEX_POINT ( 'NONE', #89 ) ;
#154 = VERTEX_POINT ( 'NONE', #90 ) ;
#155 = VERTEX_POINT ( 'NONE', #91 ) ;
#156 = VERTEX_POINT ( 'NONE', #92 ) ;
#157 = EDGE_LOOP ( 'NONE', ( #173, #175, #174, #176 ) ) ;
#158 = EDGE_LOOP ( 'NONE', ( #181, #184 ) ) ;
#159 = EDGE_LOOP ( 'NONE', ( #177, #179, #178, #180 ) ) ;
#160 = EDGE_LOOP ( 'NONE', ( #188, #182 ) ) ;
#161 = EDGE_LOOP ( 'NONE', ( #183, #185 ) ) ;
#162 = EDGE_LOOP ( 'NONE', ( #186, #172 ) ) ;
#163 = EDGE_LOOP ( 'NONE', ( #187, #170, #169, #171 ) ) ;
#164 = EDGE_LOOP ( 'NONE', ( #167, #166, #165, #168 ) ) ;
#165 = ORIENTED_EDGE ( 'NONE', *, *, #9, .T. ) ;
#166 = ORIENTED_EDGE ( 'NONE', *, *, #2, .T. ) ;
#167 = ORIENTED_EDGE ( 'NONE', *, *, #3, .F. ) ;
#168 = ORIENTED_EDGE ( 'NONE', *, *, #12, .F. ) ;
#169 = ORIENTED_EDGE ( 'NONE', *, *, #7, .T. ) ;
#170 = ORIENTED_EDGE ( 'NONE', *, *, #11, .F. ) ;
#171 = ORIENTED_EDGE ( 'NONE', *, *, #4, .T. ) ;
#172 = ORIENTED_EDGE ( 'NONE', *, *, #12, .T. ) ;
#173 = ORIENTED_EDGE ( 'NONE', *, *, #28, .T. ) ;
#174 = ORIENTED_EDGE ( 'NONE', *, *, #5, .F. ) ;
#175 = ORIENTED_EDGE ( 'NONE', *, *, #3, .T. ) ;
#176 = ORIENTED_EDGE ( 'NONE', *, *, #9, .F. ) ;
#177 = ORIENTED_EDGE ( 'NONE', *, *, #10, .F. ) ;
#178 = ORIENTED_EDGE ( 'NONE', *, *, #6, .T. ) ;
#179 = ORIENTED_EDGE ( 'NONE', *, *, #8, .T. ) ;
#180 = ORIENTED_EDGE ( 'NONE', *, *, #7, .F. ) ;
#181 = ORIENTED_EDGE ( 'NONE', *, *, #11, .T. ) ;
#182 = ORIENTED_EDGE ( 'NONE', *, *, #2, .F. ) ;
#183 = ORIENTED_EDGE ( 'NONE', *, *, #4, .F. ) ;
#184 = ORIENTED_EDGE ( 'NONE', *, *, #10, .T. ) ;
#185 = ORIENTED_EDGE ( 'NONE', *, *, #6, .F. ) ;
#186 = ORIENTED_EDGE ( 'NONE', *, *, #5, .T. ) ;
#187 = ORIENTED_EDGE ( 'NONE', *, *, #8, .F. ) ;
#188 = ORIENTED_EDGE ( 'NONE', *, *, #28, .F. ) ;
#189 = AXIS2_PLACEMENT_3D ( 'NONE', #63, #211, #209 ) ;
#190 = CLOSED_SHELL ( 'NONE', ( #30, #29, #26, #27, #24, #25 ) ) ;
#191 = AXIS2_PLACEMENT_3D ( 'NONE', #148, #77, #76 ) ;
#192 = FACE_OUTER_BOUND ( 'NONE', #163, .T. ) ;
#193 = AXIS2_PLACEMENT_3D ( 'NONE', #75, #71, #70 ) ;
#194 = VECTOR ( 'NONE', #72, 39.37007874015748100 ) ;
#195 = AXIS2_PLACEMENT_3D ( 'NONE', #69, #68, #67 ) ;
#196 = AXIS2_PLACEMENT_3D ( 'NONE', #66, #65, #64 ) ;
#197 = VECTOR ( 'NONE', #60, 39.37007874015748100 ) ;
#198 = VECTOR ( 'NONE', #54, 39.37007874015748100 ) ;
#199 = AXIS2_PLACEMENT_3D ( 'NONE', #208, #210, #206 ) ;
#200 = FACE_OUTER_BOUND ( 'NONE', #164, .T. ) ;
#201 = AXIS2_PLACEMENT_3D ( 'NONE', #207, #143, #142 ) ;
#202 = VECTOR ( 'NONE', #57, 39.37007874015748100 ) ;
#203 = LENGTH_MEASURE_WITH_UNIT ( LENGTH_MEASURE( 0.02539999999999999900 ), #93 );
#204 = STYLED_ITEM ( 'NONE', ( #103 ), #80 ) ;
#205 = PRESENTATION_LAYER_ASSIGNMENT (  '', '', ( #204 ) ) ;
#206 = DIRECTION ( 'NONE',  ( 1.000000000000000000, 0.0000000000000000000, 0.0000000000000000000 ) ) ;
#207 = CARTESIAN_POINT ( 'NONE',  ( 0.0000000000000000000, 0.0000000000000000000, 0.0000000000000000000 ) ) ;
#208 = CARTESIAN_POINT ( 'NONE',  ( 0.0000000000000000000, 0.0000000000000000000, 0.2500000000000000000 ) ) ;
#209 = DIRECTION ( 'NONE',  ( 1.000000000000000000, 0.0000000000000000000, 0.0000000000000000000 ) ) ;
#210 = DIRECTION ( 'NONE',  ( 0.0000000000000000000, 0.0000000000000000000, 1.000000000000000000 ) ) ;
#211 = DIRECTION ( 'NONE',  ( 0.0000000000000000000, 0.0000000000000000000, 1.000000000000000000 ) ) ;
#212 = APPLICATION_CONTEXT ( 'automotive_design' ) ;
#213 = APPLICATION_CONTEXT ( 'automotive_design' ) ;
#214 = AXIS2_PLACEMENT_3D ( 'NONE', #135, #134, #133 ) ;
#215 = AXIS2_PLACEMENT_3D ( 'NONE', #141, #140, #139 ) ;
#216 = CYLINDRICAL_SURFACE ( 'NONE', #215, 0.1250000000000000000 ) ;
#217 = FACE_OUTER_BOUND ( 'NONE', #158, .T. ) ;
#218 = FACE_OUTER_BOUND ( 'NONE', #159, .T. ) ;
#219 = FACE_BOUND ( 'NONE', #160, .T. ) ;
#220 = FACE_OUTER_BOUND ( 'NONE', #161, .T. ) ;
#221 = AXIS2_PLACEMENT_3D ( 'NONE', #129, #138, #137 ) ;
#222 = CYLINDRICAL_SURFACE ( 'NONE', #221, 0.05450000000000000000 ) ;
#223 = FACE_BOUND ( 'NONE', #162, .T. ) ;
ENDSEC;
END-ISO-10303-21;
