ISO-10303-21;
HEADER;
FILE_DESCRIPTION (( 'STEP AP214' ),
    '1' );
FILE_NAME ('T550D-5.step',
    '2012-04-20T21:07:31',
    ( '' ),
    ( '' ),
    'SwSTEP 2.0',
    'SolidWorks 2012',
    '' );
FILE_SCHEMA (( 'AUTOMOTIVE_DESIGN' ));
ENDSEC;

DATA;
#1 = EDGE_CURVE ( 'NONE', #60, #61, #54, .T. ) ;
#2 = CIRCLE ( 'NONE', #185, 0.1250000000000000000 ) ;
#3 = ADVANCED_FACE ( 'NONE', ( #181 ), #178, .F. ) ;
#4 = PRODUCT_RELATED_PRODUCT_CATEGORY ( 'part', '', ( #32 ) ) ;
#5 = PRODUCT_DEFINITION ( 'UNKNOWN', '', #149, #46 ) ;
#6 = COLOUR_RGB ( '',0.5686274509803921400, 0.5686274509803921400, 0.5882352941176470800 ) ;
#7 = COLOUR_RGB ( '',0.5686274509803921400, 0.5686274509803921400, 0.5882352941176470800 ) ;
#8 = EDGE_CURVE ( 'NONE', #58, #61, #16, .T. ) ;
#9 = CIRCLE ( 'NONE', #86, 0.2249999999999999800 ) ;
#10 = CIRCLE ( 'NONE', #85, 0.2249999999999999800 ) ;
#11 = CIRCLE ( 'NONE', #88, 0.2249999999999999800 ) ;
#12 = CIRCLE ( 'NONE', #90, 0.1250000000000000000 ) ;
#13 = CIRCLE ( 'NONE', #192, 0.2249999999999999800 ) ;
#14 = EDGE_CURVE ( 'NONE', #61, #58, #2, .T. ) ;
#15 = CIRCLE ( 'NONE', #89, 0.1250000000000000000 ) ;
#16 = CIRCLE ( 'NONE', #177, 0.1250000000000000000 ) ;
#17 = ADVANCED_FACE ( 'NONE', ( #189 ), #183, .T. ) ;
#18 = ADVANCED_FACE ( 'NONE', ( #187, #182 ), #214, .T. ) ;
#19 = ADVANCED_FACE ( 'NONE', ( #40, #186 ), #210, .F. ) ;
#20 = ADVANCED_FACE ( 'NONE', ( #193 ), #42, .T. ) ;
#21 = ADVANCED_FACE ( 'NONE', ( #194 ), #91, .F. ) ;
#22 = EDGE_CURVE ( 'NONE', #55, #62, #13, .T. ) ;
#23 = EDGE_CURVE ( 'NONE', #59, #60, #15, .T. ) ;
#24 = EDGE_CURVE ( 'NONE', #60, #59, #12, .T. ) ;
#25 = EDGE_CURVE ( 'NONE', #57, #56, #11, .T. ) ;
#26 = EDGE_CURVE ( 'NONE', #56, #57, #10, .T. ) ;
#27 = EDGE_CURVE ( 'NONE', #59, #58, #135, .T. ) ;
#28 = EDGE_CURVE ( 'NONE', #55, #57, #132, .T. ) ;
#29 = EDGE_CURVE ( 'NONE', #62, #55, #9, .T. ) ;
#30 = EDGE_CURVE ( 'NONE', #62, #56, #126, .T. ) ;
#31 = MECHANICAL_DESIGN_GEOMETRIC_PRESENTATION_REPRESENTATION (  '', ( #190 ), #144 ) ;
#32 = PRODUCT ( 'T550D-5', 'T550D-5', '', ( #124 ) ) ;
#33 = DIMENSIONAL_EXPONENTS ( 1.000000000000000000, 0.0000000000000000000, 0.0000000000000000000, 0.0000000000000000000, 0.0000000000000000000, 0.0000000000000000000, 0.0000000000000000000 ) ;
#34 = DIMENSIONAL_EXPONENTS ( 1.000000000000000000, 0.0000000000000000000, 0.0000000000000000000, 0.0000000000000000000, 0.0000000000000000000, 0.0000000000000000000, 0.0000000000000000000 ) ;
#35 = DIMENSIONAL_EXPONENTS ( 1.000000000000000000, 0.0000000000000000000, 0.0000000000000000000, 0.0000000000000000000, 0.0000000000000000000, 0.0000000000000000000, 0.0000000000000000000 ) ;
#36 = PRESENTATION_LAYER_ASSIGNMENT (  '', '', ( #87 ) ) ;
#37 = SURFACE_STYLE_FILL_AREA ( #38 ) ;
#38 = FILL_AREA_STYLE ('',( #43 ) ) ;
#39 = AXIS2_PLACEMENT_3D ( 'NONE', #206, #205, #204 ) ;
#40 = FACE_OUTER_BOUND ( 'NONE', #67, .T. ) ;
#41 = AXIS2_PLACEMENT_3D ( 'NONE', #213, #212, #211 ) ;
#42 = CYLINDRICAL_SURFACE ( 'NONE', #39, 0.2249999999999999800 ) ;
#43 = FILL_AREA_STYLE_COLOUR ( '', #7 ) ;
#44 = DIRECTION ( 'NONE',  ( -0.0000000000000000000, -0.0000000000000000000, -1.000000000000000000 ) ) ;
#45 = CARTESIAN_POINT ( 'NONE',  ( 0.2249999999999999800, 2.755455298081544500E-017, 0.5500000000000000400 ) ) ;
#46 = PRODUCT_DEFINITION_CONTEXT ( 'detailed design', #199, 'design' ) ;
#47 = MANIFOLD_SOLID_BREP ( 'Boss-Extrude1', #179 ) ;
#48 = PRODUCT_DEFINITION_SHAPE ( 'NONE', 'NONE',  #5 ) ;
#49 = DIRECTION ( 'NONE',  ( -1.000000000000000000, 0.0000000000000000000, 0.0000000000000000000 ) ) ;
#50 = DIRECTION ( 'NONE',  ( -0.0000000000000000000, -0.0000000000000000000, -1.000000000000000000 ) ) ;
#51 = CARTESIAN_POINT ( 'NONE',  ( 0.0000000000000000000, 0.0000000000000000000, 0.5500000000000000400 ) ) ;
#52 = DIRECTION ( 'NONE',  ( -0.0000000000000000000, -0.0000000000000000000, -1.000000000000000000 ) ) ;
#53 = CARTESIAN_POINT ( 'NONE',  ( 0.1250000000000000000, 1.530808498934191500E-017, 0.5500000000000000400 ) ) ;
#54 = LINE ( 'NONE', #53, #188 ) ;
#55 = VERTEX_POINT ( 'NONE', #98 ) ;
#56 = VERTEX_POINT ( 'NONE', #99 ) ;
#57 = VERTEX_POINT ( 'NONE', #100 ) ;
#58 = VERTEX_POINT ( 'NONE', #101 ) ;
#59 = VERTEX_POINT ( 'NONE', #102 ) ;
#60 = VERTEX_POINT ( 'NONE', #127 ) ;
#61 = VERTEX_POINT ( 'NONE', #103 ) ;
#62 = VERTEX_POINT ( 'NONE', #104 ) ;
#63 = EDGE_LOOP ( 'NONE', ( #163, #165 ) ) ;
#64 = EDGE_LOOP ( 'NONE', ( #168, #167, #155, #166 ) ) ;
#65 = EDGE_LOOP ( 'NONE', ( #164, #161, #162, #160 ) ) ;
#66 = EDGE_LOOP ( 'NONE', ( #71, #159 ) ) ;
#67 = EDGE_LOOP ( 'NONE', ( #72, #158 ) ) ;
#68 = EDGE_LOOP ( 'NONE', ( #156, #169 ) ) ;
#69 = EDGE_LOOP ( 'NONE', ( #157, #171, #172, #170 ) ) ;
#70 = EDGE_LOOP ( 'NONE', ( #174, #175, #176, #173 ) ) ;
#71 = ORIENTED_EDGE ( 'NONE', *, *, #23, .F. ) ;
#72 = ORIENTED_EDGE ( 'NONE', *, *, #25, .F. ) ;
#73 = UNCERTAINTY_MEASURE_WITH_UNIT (LENGTH_MEASURE( 1.000000000000000100E-005 ), #106, 'distance_accuracy_value', 'NONE');
#74 = UNCERTAINTY_MEASURE_WITH_UNIT (LENGTH_MEASURE( 1.000000000000000100E-005 ), #117, 'distance_accuracy_value', 'NONE');
#75 = ADVANCED_BREP_SHAPE_REPRESENTATION ( 'T550D-5', ( #47, #148 ), #145 ) ;
#76 = LENGTH_MEASURE_WITH_UNIT ( LENGTH_MEASURE( 0.02539999999999999900 ), #94 );
#77 = DIRECTION ( 'NONE',  ( 1.000000000000000000, 0.0000000000000000000, 0.0000000000000000000 ) ) ;
#78 = DIRECTION ( 'NONE',  ( 0.0000000000000000000, 0.0000000000000000000, 1.000000000000000000 ) ) ;
#79 = CARTESIAN_POINT ( 'NONE',  ( 0.0000000000000000000, 0.0000000000000000000, 0.5500000000000000400 ) ) ;
#80 = DIRECTION ( 'NONE',  ( 1.000000000000000000, 0.0000000000000000000, 0.0000000000000000000 ) ) ;
#81 = DIRECTION ( 'NONE',  ( 0.0000000000000000000, 0.0000000000000000000, 1.000000000000000000 ) ) ;
#82 = CARTESIAN_POINT ( 'NONE',  ( 0.0000000000000000000, 0.0000000000000000000, 0.5500000000000000400 ) ) ;
#83 = DIRECTION ( 'NONE',  ( -1.000000000000000000, 0.0000000000000000000, 0.0000000000000000000 ) ) ;
#84 = DIRECTION ( 'NONE',  ( -0.0000000000000000000, -0.0000000000000000000, -1.000000000000000000 ) ) ;
#85 = AXIS2_PLACEMENT_3D ( 'NONE', #141, #140, #139 ) ;
#86 = AXIS2_PLACEMENT_3D ( 'NONE', #136, #129, #128 ) ;
#87 = STYLED_ITEM ( 'NONE', ( #115 ), #75 ) ;
#88 = AXIS2_PLACEMENT_3D ( 'NONE', #151, #143, #142 ) ;
#89 = AXIS2_PLACEMENT_3D ( 'NONE', #79, #78, #77 ) ;
#90 = AXIS2_PLACEMENT_3D ( 'NONE', #154, #153, #152 ) ;
#91 = CYLINDRICAL_SURFACE ( 'NONE', #92, 0.1250000000000000000 ) ;
#92 = AXIS2_PLACEMENT_3D ( 'NONE', #203, #84, #83 ) ;
#93 = PRESENTATION_STYLE_ASSIGNMENT (( #197 ) ) ;
#94 =( LENGTH_UNIT ( ) NAMED_UNIT ( * ) SI_UNIT ( $, .METRE. ) );
#95 =( CONVERSION_BASED_UNIT ( 'INCH', #76 ) LENGTH_UNIT ( ) NAMED_UNIT ( #33 ) );
#96 =( NAMED_UNIT ( * ) PLANE_ANGLE_UNIT ( ) SI_UNIT ( $, .RADIAN. ) );
#97 =( NAMED_UNIT ( * ) SI_UNIT ( $, .STERADIAN. ) SOLID_ANGLE_UNIT ( ) );
#98 = CARTESIAN_POINT ( 'NONE',  ( -0.2249999999999999800, 0.0000000000000000000, 0.5500000000000000400 ) ) ;
#99 = CARTESIAN_POINT ( 'NONE',  ( 0.2249999999999999800, 2.755455298081544500E-017, 0.0000000000000000000 ) ) ;
#100 = CARTESIAN_POINT ( 'NONE',  ( -0.2249999999999999800, 0.0000000000000000000, 0.0000000000000000000 ) ) ;
#101 = CARTESIAN_POINT ( 'NONE',  ( -0.1250000000000000000, 0.0000000000000000000, 0.0000000000000000000 ) ) ;
#102 = CARTESIAN_POINT ( 'NONE',  ( -0.1250000000000000000, 0.0000000000000000000, 0.5500000000000000400 ) ) ;
#103 = CARTESIAN_POINT ( 'NONE',  ( 0.1250000000000000000, 1.530808498934191500E-017, 0.0000000000000000000 ) ) ;
#104 = CARTESIAN_POINT ( 'NONE',  ( 0.2249999999999999800, 2.755455298081544500E-017, 0.5500000000000000400 ) ) ;
#105 =( LENGTH_UNIT ( ) NAMED_UNIT ( * ) SI_UNIT ( $, .METRE. ) );
#106 =( CONVERSION_BASED_UNIT ( 'INCH', #195 ) LENGTH_UNIT ( ) NAMED_UNIT ( #35 ) );
#107 =( NAMED_UNIT ( * ) PLANE_ANGLE_UNIT ( ) SI_UNIT ( $, .RADIAN. ) );
#108 =( NAMED_UNIT ( * ) SI_UNIT ( $, .STERADIAN. ) SOLID_ANGLE_UNIT ( ) );
#109 = APPLICATION_PROTOCOL_DEFINITION ( 'draft international standard', 'automotive_design', 1998, #198 ) ;
#110 = FILL_AREA_STYLE_COLOUR ( '', #6 ) ;
#111 = FILL_AREA_STYLE ('',( #110 ) ) ;
#112 = SURFACE_STYLE_FILL_AREA ( #111 ) ;
#113 = SURFACE_SIDE_STYLE ('',( #112 ) ) ;
#114 = SURFACE_STYLE_USAGE ( .BOTH. , #113 ) ;
#115 = PRESENTATION_STYLE_ASSIGNMENT (( #114 ) ) ;
#116 =( LENGTH_UNIT ( ) NAMED_UNIT ( * ) SI_UNIT ( $, .METRE. ) );
#117 =( CONVERSION_BASED_UNIT ( 'INCH', #147 ) LENGTH_UNIT ( ) NAMED_UNIT ( #34 ) );
#118 =( NAMED_UNIT ( * ) PLANE_ANGLE_UNIT ( ) SI_UNIT ( $, .RADIAN. ) );
#119 =( NAMED_UNIT ( * ) SI_UNIT ( $, .STERADIAN. ) SOLID_ANGLE_UNIT ( ) );
#120 = CARTESIAN_POINT ( 'NONE',  ( 0.0000000000000000000, 0.0000000000000000000, 0.0000000000000000000 ) ) ;
#121 = DIRECTION ( 'NONE',  ( 0.0000000000000000000, 0.0000000000000000000, 1.000000000000000000 ) ) ;
#122 = DIRECTION ( 'NONE',  ( 1.000000000000000000, 0.0000000000000000000, 0.0000000000000000000 ) ) ;
#123 = SHAPE_DEFINITION_REPRESENTATION ( #48, #75 ) ;
#124 = PRODUCT_CONTEXT ( 'NONE', #198, 'mechanical' ) ;
#125 = APPLICATION_PROTOCOL_DEFINITION ( 'draft international standard', 'automotive_design', 1998, #199 ) ;
#126 = LINE ( 'NONE', #45, #137 ) ;
#127 = CARTESIAN_POINT ( 'NONE',  ( 0.1250000000000000000, 1.530808498934191500E-017, 0.5500000000000000400 ) ) ;
#128 = DIRECTION ( 'NONE',  ( 1.000000000000000000, 0.0000000000000000000, 0.0000000000000000000 ) ) ;
#129 = DIRECTION ( 'NONE',  ( 0.0000000000000000000, 0.0000000000000000000, 1.000000000000000000 ) ) ;
#130 = DIRECTION ( 'NONE',  ( -0.0000000000000000000, -0.0000000000000000000, -1.000000000000000000 ) ) ;
#131 = CARTESIAN_POINT ( 'NONE',  ( -0.2249999999999999800, 0.0000000000000000000, 0.5500000000000000400 ) ) ;
#132 = LINE ( 'NONE', #131, #202 ) ;
#133 = DIRECTION ( 'NONE',  ( -0.0000000000000000000, -0.0000000000000000000, -1.000000000000000000 ) ) ;
#134 = CARTESIAN_POINT ( 'NONE',  ( -0.1250000000000000000, 0.0000000000000000000, 0.5500000000000000400 ) ) ;
#135 = LINE ( 'NONE', #134, #201 ) ;
#136 = CARTESIAN_POINT ( 'NONE',  ( 0.0000000000000000000, 0.0000000000000000000, 0.5500000000000000400 ) ) ;
#137 = VECTOR ( 'NONE', #44, 39.37007874015748100 ) ;
#138 = PRESENTATION_LAYER_ASSIGNMENT (  '', '', ( #190 ) ) ;
#139 = DIRECTION ( 'NONE',  ( 1.000000000000000000, 0.0000000000000000000, 0.0000000000000000000 ) ) ;
#140 = DIRECTION ( 'NONE',  ( 0.0000000000000000000, 0.0000000000000000000, 1.000000000000000000 ) ) ;
#141 = CARTESIAN_POINT ( 'NONE',  ( 0.0000000000000000000, 0.0000000000000000000, 0.0000000000000000000 ) ) ;
#142 = DIRECTION ( 'NONE',  ( 1.000000000000000000, 0.0000000000000000000, 0.0000000000000000000 ) ) ;
#143 = DIRECTION ( 'NONE',  ( 0.0000000000000000000, 0.0000000000000000000, 1.000000000000000000 ) ) ;
#144 =( GEOMETRIC_REPRESENTATION_CONTEXT ( 3 ) GLOBAL_UNCERTAINTY_ASSIGNED_CONTEXT ( ( #200 ) ) GLOBAL_UNIT_ASSIGNED_CONTEXT ( ( #95, #96, #97 ) ) REPRESENTATION_CONTEXT ( 'NONE', 'WORKASPACE' ) );
#145 =( GEOMETRIC_REPRESENTATION_CONTEXT ( 3 ) GLOBAL_UNCERTAINTY_ASSIGNED_CONTEXT ( ( #73 ) ) GLOBAL_UNIT_ASSIGNED_CONTEXT ( ( #106, #107, #108 ) ) REPRESENTATION_CONTEXT ( 'NONE', 'WORKASPACE' ) );
#146 =( GEOMETRIC_REPRESENTATION_CONTEXT ( 3 ) GLOBAL_UNCERTAINTY_ASSIGNED_CONTEXT ( ( #74 ) ) GLOBAL_UNIT_ASSIGNED_CONTEXT ( ( #117, #118, #119 ) ) REPRESENTATION_CONTEXT ( 'NONE', 'WORKASPACE' ) );
#147 = LENGTH_MEASURE_WITH_UNIT ( LENGTH_MEASURE( 0.02539999999999999900 ), #116 );
#148 = AXIS2_PLACEMENT_3D ( 'NONE', #120, #121, #122 ) ;
#149 = PRODUCT_DEFINITION_FORMATION_WITH_SPECIFIED_SOURCE ( 'ANY', '', #32, .NOT_KNOWN. ) ;
#150 = MECHANICAL_DESIGN_GEOMETRIC_PRESENTATION_REPRESENTATION (  '', ( #87 ), #146 ) ;
#151 = CARTESIAN_POINT ( 'NONE',  ( 0.0000000000000000000, 0.0000000000000000000, 0.0000000000000000000 ) ) ;
#152 = DIRECTION ( 'NONE',  ( 1.000000000000000000, 0.0000000000000000000, 0.0000000000000000000 ) ) ;
#153 = DIRECTION ( 'NONE',  ( 0.0000000000000000000, 0.0000000000000000000, 1.000000000000000000 ) ) ;
#154 = CARTESIAN_POINT ( 'NONE',  ( 0.0000000000000000000, 0.0000000000000000000, 0.5500000000000000400 ) ) ;
#155 = ORIENTED_EDGE ( 'NONE', *, *, #8, .F. ) ;
#156 = ORIENTED_EDGE ( 'NONE', *, *, #8, .T. ) ;
#157 = ORIENTED_EDGE ( 'NONE', *, *, #30, .F. ) ;
#158 = ORIENTED_EDGE ( 'NONE', *, *, #26, .F. ) ;
#159 = ORIENTED_EDGE ( 'NONE', *, *, #24, .F. ) ;
#160 = ORIENTED_EDGE ( 'NONE', *, *, #28, .F. ) ;
#161 = ORIENTED_EDGE ( 'NONE', *, *, #30, .T. ) ;
#162 = ORIENTED_EDGE ( 'NONE', *, *, #26, .T. ) ;
#163 = ORIENTED_EDGE ( 'NONE', *, *, #22, .T. ) ;
#164 = ORIENTED_EDGE ( 'NONE', *, *, #29, .F. ) ;
#165 = ORIENTED_EDGE ( 'NONE', *, *, #29, .T. ) ;
#166 = ORIENTED_EDGE ( 'NONE', *, *, #27, .F. ) ;
#167 = ORIENTED_EDGE ( 'NONE', *, *, #1, .T. ) ;
#168 = ORIENTED_EDGE ( 'NONE', *, *, #23, .T. ) ;
#169 = ORIENTED_EDGE ( 'NONE', *, *, #14, .T. ) ;
#170 = ORIENTED_EDGE ( 'NONE', *, *, #25, .T. ) ;
#171 = ORIENTED_EDGE ( 'NONE', *, *, #22, .F. ) ;
#172 = ORIENTED_EDGE ( 'NONE', *, *, #28, .T. ) ;
#173 = ORIENTED_EDGE ( 'NONE', *, *, #14, .F. ) ;
#174 = ORIENTED_EDGE ( 'NONE', *, *, #1, .F. ) ;
#175 = ORIENTED_EDGE ( 'NONE', *, *, #24, .T. ) ;
#176 = ORIENTED_EDGE ( 'NONE', *, *, #27, .T. ) ;
#177 = AXIS2_PLACEMENT_3D ( 'NONE', #223, #222, #221 ) ;
#178 = CYLINDRICAL_SURFACE ( 'NONE', #184, 0.1250000000000000000 ) ;
#179 = CLOSED_SHELL ( 'NONE', ( #3, #17, #18, #19, #20, #21 ) ) ;
#180 = AXIS2_PLACEMENT_3D ( 'NONE', #217, #216, #215 ) ;
#181 = FACE_OUTER_BOUND ( 'NONE', #64, .T. ) ;
#182 = FACE_BOUND ( 'NONE', #66, .T. ) ;
#183 = CYLINDRICAL_SURFACE ( 'NONE', #180, 0.2249999999999999800 ) ;
#184 = AXIS2_PLACEMENT_3D ( 'NONE', #51, #50, #49 ) ;
#185 = AXIS2_PLACEMENT_3D ( 'NONE', #220, #219, #218 ) ;
#186 = FACE_BOUND ( 'NONE', #68, .T. ) ;
#187 = FACE_OUTER_BOUND ( 'NONE', #63, .T. ) ;
#188 = VECTOR ( 'NONE', #52, 39.37007874015748100 ) ;
#189 = FACE_OUTER_BOUND ( 'NONE', #65, .T. ) ;
#190 = STYLED_ITEM ( 'NONE', ( #93 ), #47 ) ;
#191 = AXIS2_PLACEMENT_3D ( 'NONE', #209, #208, #207 ) ;
#192 = AXIS2_PLACEMENT_3D ( 'NONE', #82, #81, #80 ) ;
#193 = FACE_OUTER_BOUND ( 'NONE', #69, .T. ) ;
#194 = FACE_OUTER_BOUND ( 'NONE', #70, .T. ) ;
#195 = LENGTH_MEASURE_WITH_UNIT ( LENGTH_MEASURE( 0.02539999999999999900 ), #105 );
#196 = SURFACE_SIDE_STYLE ('',( #37 ) ) ;
#197 = SURFACE_STYLE_USAGE ( .BOTH. , #196 ) ;
#198 = APPLICATION_CONTEXT ( 'automotive_design' ) ;
#199 = APPLICATION_CONTEXT ( 'automotive_design' ) ;
#200 = UNCERTAINTY_MEASURE_WITH_UNIT (LENGTH_MEASURE( 1.000000000000000100E-005 ), #95, 'distance_accuracy_value', 'NONE');
#201 = VECTOR ( 'NONE', #133, 39.37007874015748100 ) ;
#202 = VECTOR ( 'NONE', #130, 39.37007874015748100 ) ;
#203 = CARTESIAN_POINT ( 'NONE',  ( 0.0000000000000000000, 0.0000000000000000000, 0.5500000000000000400 ) ) ;
#204 = DIRECTION ( 'NONE',  ( -1.000000000000000000, 0.0000000000000000000, 0.0000000000000000000 ) ) ;
#205 = DIRECTION ( 'NONE',  ( -0.0000000000000000000, -0.0000000000000000000, -1.000000000000000000 ) ) ;
#206 = CARTESIAN_POINT ( 'NONE',  ( 0.0000000000000000000, 0.0000000000000000000, 0.5500000000000000400 ) ) ;
#207 = DIRECTION ( 'NONE',  ( 1.000000000000000000, 0.0000000000000000000, -0.0000000000000000000 ) ) ;
#208 = DIRECTION ( 'NONE',  ( 0.0000000000000000000, 0.0000000000000000000, 1.000000000000000000 ) ) ;
#209 = CARTESIAN_POINT ( 'NONE',  ( 0.0000000000000000000, 0.0000000000000000000, 0.0000000000000000000 ) ) ;
#210 = PLANE ( 'NONE',  #191 ) ;
#211 = DIRECTION ( 'NONE',  ( 1.000000000000000000, 0.0000000000000000000, -0.0000000000000000000 ) ) ;
#212 = DIRECTION ( 'NONE',  ( 0.0000000000000000000, 0.0000000000000000000, 1.000000000000000000 ) ) ;
#213 = CARTESIAN_POINT ( 'NONE',  ( 0.0000000000000000000, 0.0000000000000000000, 0.5500000000000000400 ) ) ;
#214 = PLANE ( 'NONE',  #41 ) ;
#215 = DIRECTION ( 'NONE',  ( -1.000000000000000000, 0.0000000000000000000, 0.0000000000000000000 ) ) ;
#216 = DIRECTION ( 'NONE',  ( -0.0000000000000000000, -0.0000000000000000000, -1.000000000000000000 ) ) ;
#217 = CARTESIAN_POINT ( 'NONE',  ( 0.0000000000000000000, 0.0000000000000000000, 0.5500000000000000400 ) ) ;
#218 = DIRECTION ( 'NONE',  ( 1.000000000000000000, 0.0000000000000000000, 0.0000000000000000000 ) ) ;
#219 = DIRECTION ( 'NONE',  ( 0.0000000000000000000, 0.0000000000000000000, 1.000000000000000000 ) ) ;
#220 = CARTESIAN_POINT ( 'NONE',  ( 0.0000000000000000000, 0.0000000000000000000, 0.0000000000000000000 ) ) ;
#221 = DIRECTION ( 'NONE',  ( 1.000000000000000000, 0.0000000000000000000, 0.0000000000000000000 ) ) ;
#222 = DIRECTION ( 'NONE',  ( 0.0000000000000000000, 0.0000000000000000000, 1.000000000000000000 ) ) ;
#223 = CARTESIAN_POINT ( 'NONE',  ( 0.0000000000000000000, 0.0000000000000000000, 0.0000000000000000000 ) ) ;
ENDSEC;
END-ISO-10303-21;
