ISO-10303-21;
HEADER;
FILE_DESCRIPTION (( 'STEP AP214' ),
    '1' );
FILE_NAME ('WB470J.step',
    '2012-04-20T21:08:34',
    ( '' ),
    ( '' ),
    'SwSTEP 2.0',
    'SolidWorks 2012',
    '' );
FILE_SCHEMA (( 'AUTOMOTIVE_DESIGN' ));
ENDSEC;

DATA;
#1 = CIRCLE ( 'NONE', #162, 1.164934242631778600 ) ;
#2 = COLOUR_RGB ( '',0.09803921568627450800, 0.09803921568627450800, 0.09803921568627450800 ) ;
#3 = CIRCLE ( 'NONE', #161, 0.6250000000000000000 ) ;
#4 = EDGE_CURVE ( 'NONE', #225, #223, #254, .T. ) ;
#5 = CIRCLE ( 'NONE', #143, 1.164934242631778600 ) ;
#6 = PRODUCT_RELATED_PRODUCT_CATEGORY ( 'part', '', ( #37 ) ) ;
#7 = COLOUR_RGB ( '',0.09803921568627450800, 0.09803921568627450800, 0.09803921568627450800 ) ;
#8 = PRODUCT_DEFINITION ( 'UNKNOWN', '', #166, #45 ) ;
#9 = COLOUR_RGB ( '',0.09803921568627450800, 0.09803921568627450800, 0.09803921568627450800 ) ;
#10 = EDGE_CURVE ( 'NONE', #226, #227, #24, .T. ) ;
#11 = EDGE_CURVE ( 'NONE', #224, #226, #266, .T. ) ;
#12 = COLOUR_RGB ( '',0.09803921568627450800, 0.09803921568627450800, 0.09803921568627450800 ) ;
#13 = EDGE_CURVE ( 'NONE', #223, #229, #15, .T. ) ;
#14 = EDGE_CURVE ( 'NONE', #228, #227, #5, .T. ) ;
#15 = CIRCLE ( 'NONE', #134, 0.6250000000000000000 ) ;
#16 = CONICAL_SURFACE ( 'NONE', #90, 0.4687500000000000000, 0.4999393569397688800 ) ;
#17 = COLOUR_RGB ( '',0.09803921568627450800, 0.09803921568627450800, 0.09803921568627450800 ) ;
#18 = COLOUR_RGB ( '',0.09803921568627450800, 0.09803921568627450800, 0.09803921568627450800 ) ;
#19 = CONICAL_SURFACE ( 'NONE', #158, 0.4687500000000000000, 0.4999393569397688800 ) ;
#20 = ADVANCED_FACE ( 'NONE', ( #138 ), #140, .T. ) ;
#21 = COLOUR_RGB ( '',0.09803921568627450800, 0.09803921568627450800, 0.09803921568627450800 ) ;
#22 = CIRCLE ( 'NONE', #80, 0.6250000000000000000 ) ;
#23 = EDGE_CURVE ( 'NONE', #224, #225, #25, .T. ) ;
#24 = CIRCLE ( 'NONE', #137, 0.6250000000000000000 ) ;
#25 = CIRCLE ( 'NONE', #145, 0.4687500000000000000 ) ;
#26 = EDGE_CURVE ( 'NONE', #227, #223, #22, .T. ) ;
#27 = ADVANCED_FACE ( 'NONE', ( #95 ), #16, .T. ) ;
#28 = ADVANCED_FACE ( 'NONE', ( #92 ), #201, .T. ) ;
#29 = CIRCLE ( 'NONE', #87, 0.4687500000000000000 ) ;
#30 = ADVANCED_FACE ( 'NONE', ( #91 ), #86, .T. ) ;
#31 = EDGE_CURVE ( 'NONE', #225, #224, #29, .T. ) ;
#32 = ADVANCED_FACE ( 'NONE', ( #74 ), #19, .T. ) ;
#33 = EDGE_CURVE ( 'NONE', #228, #229, #1, .T. ) ;
#34 = EDGE_CURVE ( 'NONE', #229, #226, #3, .T. ) ;
#35 = DIMENSIONAL_EXPONENTS ( 1.000000000000000000, 0.0000000000000000000, 0.0000000000000000000, 0.0000000000000000000, 0.0000000000000000000, 0.0000000000000000000, 0.0000000000000000000 ) ;
#36 = DIMENSIONAL_EXPONENTS ( 1.000000000000000000, 0.0000000000000000000, 0.0000000000000000000, 0.0000000000000000000, 0.0000000000000000000, 0.0000000000000000000, 0.0000000000000000000 ) ;
#37 = PRODUCT ( 'WB470J', 'WB470J', '', ( #107 ) ) ;
#38 = DIMENSIONAL_EXPONENTS ( 1.000000000000000000, 0.0000000000000000000, 0.0000000000000000000, 0.0000000000000000000, 0.0000000000000000000, 0.0000000000000000000, 0.0000000000000000000 ) ;
#39 = DIMENSIONAL_EXPONENTS ( 1.000000000000000000, 0.0000000000000000000, 0.0000000000000000000, 0.0000000000000000000, 0.0000000000000000000, 0.0000000000000000000, 0.0000000000000000000 ) ;
#40 = DIMENSIONAL_EXPONENTS ( 1.000000000000000000, 0.0000000000000000000, 0.0000000000000000000, 0.0000000000000000000, 0.0000000000000000000, 0.0000000000000000000, 0.0000000000000000000 ) ;
#41 = DIMENSIONAL_EXPONENTS ( 1.000000000000000000, 0.0000000000000000000, 0.0000000000000000000, 0.0000000000000000000, 0.0000000000000000000, 0.0000000000000000000, 0.0000000000000000000 ) ;
#42 = DIMENSIONAL_EXPONENTS ( 1.000000000000000000, 0.0000000000000000000, 0.0000000000000000000, 0.0000000000000000000, 0.0000000000000000000, 0.0000000000000000000, 0.0000000000000000000 ) ;
#43 = DIMENSIONAL_EXPONENTS ( 1.000000000000000000, 0.0000000000000000000, 0.0000000000000000000, 0.0000000000000000000, 0.0000000000000000000, 0.0000000000000000000, 0.0000000000000000000 ) ;
#44 = MANIFOLD_SOLID_BREP ( 'Revolve1', #144 ) ;
#45 = PRODUCT_DEFINITION_CONTEXT ( 'detailed design', #153, 'design' ) ;
#46 = PRODUCT_DEFINITION_SHAPE ( 'NONE', 'NONE',  #8 ) ;
#47 = CARTESIAN_POINT ( 'NONE',  ( 0.0000000000000000000, -0.6970253200409409800, 0.0000000000000000000 ) ) ;
#48 = DIRECTION ( 'NONE',  ( 0.0000000000000000000, 0.0000000000000000000, 1.000000000000000000 ) ) ;
#49 = DIRECTION ( 'NONE',  ( 1.000000000000000000, 0.0000000000000000000, 0.0000000000000000000 ) ) ;
#50 = CARTESIAN_POINT ( 'NONE',  ( 0.0000000000000000000, 0.0000000000000000000, 0.0000000000000000000 ) ) ;
#51 = DIRECTION ( 'NONE',  ( -0.0000000000000000000, -1.000000000000000000, -0.0000000000000000000 ) ) ;
#52 = DIRECTION ( 'NONE',  ( 0.0000000000000000000, 0.0000000000000000000, -1.000000000000000000 ) ) ;
#53 = CARTESIAN_POINT ( 'NONE',  ( 0.0000000000000000000, 0.0000000000000000000, 0.0000000000000000000 ) ) ;
#54 = FILL_AREA_STYLE_COLOUR ( '', #7 ) ;
#55 = FILL_AREA_STYLE ('',( #54 ) ) ;
#56 = SURFACE_STYLE_FILL_AREA ( #55 ) ;
#57 = SURFACE_SIDE_STYLE ('',( #56 ) ) ;
#58 = SURFACE_STYLE_USAGE ( .BOTH. , #57 ) ;
#59 = PRESENTATION_STYLE_ASSIGNMENT (( #58 ) ) ;
#60 =( LENGTH_UNIT ( ) NAMED_UNIT ( * ) SI_UNIT ( $, .METRE. ) );
#61 =( CONVERSION_BASED_UNIT ( 'INCH', #156 ) LENGTH_UNIT ( ) NAMED_UNIT ( #39 ) );
#62 =( NAMED_UNIT ( * ) PLANE_ANGLE_UNIT ( ) SI_UNIT ( $, .RADIAN. ) );
#63 = UNCERTAINTY_MEASURE_WITH_UNIT (LENGTH_MEASURE( 1.000000000000000100E-005 ), #185, 'distance_accuracy_value', 'NONE');
#64 = UNCERTAINTY_MEASURE_WITH_UNIT (LENGTH_MEASURE( 1.000000000000000100E-005 ), #196, 'distance_accuracy_value', 'NONE');
#65 = UNCERTAINTY_MEASURE_WITH_UNIT (LENGTH_MEASURE( 1.000000000000000100E-005 ), #61, 'distance_accuracy_value', 'NONE');
#66 = UNCERTAINTY_MEASURE_WITH_UNIT (LENGTH_MEASURE( 1.000000000000000100E-005 ), #247, 'distance_accuracy_value', 'NONE');
#67 = UNCERTAINTY_MEASURE_WITH_UNIT (LENGTH_MEASURE( 1.000000000000000100E-005 ), #125, 'distance_accuracy_value', 'NONE');
#68 = ADVANCED_BREP_SHAPE_REPRESENTATION ( 'WB470J', ( #44, #165 ), #104 ) ;
#69 = UNCERTAINTY_MEASURE_WITH_UNIT (LENGTH_MEASURE( 1.000000000000000100E-005 ), #114, 'distance_accuracy_value', 'NONE');
#70 = UNCERTAINTY_MEASURE_WITH_UNIT (LENGTH_MEASURE( 1.000000000000000100E-005 ), #73, 'distance_accuracy_value', 'NONE');
#71 = UNCERTAINTY_MEASURE_WITH_UNIT (LENGTH_MEASURE( 1.000000000000000100E-005 ), #203, 'distance_accuracy_value', 'NONE');
#72 =( LENGTH_UNIT ( ) NAMED_UNIT ( * ) SI_UNIT ( $, .METRE. ) );
#73 =( CONVERSION_BASED_UNIT ( 'INCH', #150 ) LENGTH_UNIT ( ) NAMED_UNIT ( #41 ) );
#74 = FACE_OUTER_BOUND ( 'NONE', #230, .T. ) ;
#75 = MECHANICAL_DESIGN_GEOMETRIC_PRESENTATION_REPRESENTATION (  '', ( #77 ), #99 ) ;
#76 = STYLED_ITEM ( 'NONE', ( #241 ), #28 ) ;
#77 = STYLED_ITEM ( 'NONE', ( #202 ), #27 ) ;
#78 = LENGTH_MEASURE_WITH_UNIT ( LENGTH_MEASURE( 0.02539999999999999900 ), #194 );
#79 = LENGTH_MEASURE_WITH_UNIT ( LENGTH_MEASURE( 0.02539999999999999900 ), #245 );
#80 = AXIS2_PLACEMENT_3D ( 'NONE', #259, #191, #193 ) ;
#81 = MECHANICAL_DESIGN_GEOMETRIC_PRESENTATION_REPRESENTATION (  '', ( #85 ), #101 ) ;
#82 = AXIS2_PLACEMENT_3D ( 'NONE', #47, #48, #49 ) ;
#83 = STYLED_ITEM ( 'NONE', ( #59 ), #32 ) ;
#84 = PRESENTATION_LAYER_ASSIGNMENT (  '', '', ( #85 ) ) ;
#85 = STYLED_ITEM ( 'NONE', ( #204 ), #30 ) ;
#86 = SPHERICAL_SURFACE ( 'NONE', #82, 1.164934242631778600 ) ;
#87 = AXIS2_PLACEMENT_3D ( 'NONE', #50, #51, #52 ) ;
#88 = LENGTH_MEASURE_WITH_UNIT ( LENGTH_MEASURE( 0.02539999999999999900 ), #239 );
#89 = AXIS2_PLACEMENT_3D ( 'NONE', #243, #244, #251 ) ;
#90 = AXIS2_PLACEMENT_3D ( 'NONE', #186, #232, #233 ) ;
#91 = FACE_OUTER_BOUND ( 'NONE', #252, .T. ) ;
#92 = FACE_OUTER_BOUND ( 'NONE', #253, .T. ) ;
#93 = MECHANICAL_DESIGN_GEOMETRIC_PRESENTATION_REPRESENTATION (  '', ( #76 ), #100 ) ;
#94 = LENGTH_MEASURE_WITH_UNIT ( LENGTH_MEASURE( 0.02539999999999999900 ), #285 );
#95 = FACE_OUTER_BOUND ( 'NONE', #246, .T. ) ;
#96 = PRESENTATION_LAYER_ASSIGNMENT (  '', '', ( #76 ) ) ;
#97 = PRESENTATION_LAYER_ASSIGNMENT (  '', '', ( #77 ) ) ;
#98 =( GEOMETRIC_REPRESENTATION_CONTEXT ( 3 ) GLOBAL_UNCERTAINTY_ASSIGNED_CONTEXT ( ( #63 ) ) GLOBAL_UNIT_ASSIGNED_CONTEXT ( ( #185, #192, #283 ) ) REPRESENTATION_CONTEXT ( 'NONE', 'WORKASPACE' ) );
#99 =( GEOMETRIC_REPRESENTATION_CONTEXT ( 3 ) GLOBAL_UNCERTAINTY_ASSIGNED_CONTEXT ( ( #64 ) ) GLOBAL_UNIT_ASSIGNED_CONTEXT ( ( #196, #242, #238 ) ) REPRESENTATION_CONTEXT ( 'NONE', 'WORKASPACE' ) );
#100 =( GEOMETRIC_REPRESENTATION_CONTEXT ( 3 ) GLOBAL_UNCERTAINTY_ASSIGNED_CONTEXT ( ( #66 ) ) GLOBAL_UNIT_ASSIGNED_CONTEXT ( ( #247, #198, #249 ) ) REPRESENTATION_CONTEXT ( 'NONE', 'WORKASPACE' ) );
#101 =( GEOMETRIC_REPRESENTATION_CONTEXT ( 3 ) GLOBAL_UNCERTAINTY_ASSIGNED_CONTEXT ( ( #71 ) ) GLOBAL_UNIT_ASSIGNED_CONTEXT ( ( #203, #184, #183 ) ) REPRESENTATION_CONTEXT ( 'NONE', 'WORKASPACE' ) );
#102 =( GEOMETRIC_REPRESENTATION_CONTEXT ( 3 ) GLOBAL_UNCERTAINTY_ASSIGNED_CONTEXT ( ( #65 ) ) GLOBAL_UNIT_ASSIGNED_CONTEXT ( ( #61, #62, #176 ) ) REPRESENTATION_CONTEXT ( 'NONE', 'WORKASPACE' ) );
#103 =( GEOMETRIC_REPRESENTATION_CONTEXT ( 3 ) GLOBAL_UNCERTAINTY_ASSIGNED_CONTEXT ( ( #70 ) ) GLOBAL_UNIT_ASSIGNED_CONTEXT ( ( #73, #152, #151 ) ) REPRESENTATION_CONTEXT ( 'NONE', 'WORKASPACE' ) );
#104 =( GEOMETRIC_REPRESENTATION_CONTEXT ( 3 ) GLOBAL_UNCERTAINTY_ASSIGNED_CONTEXT ( ( #67 ) ) GLOBAL_UNIT_ASSIGNED_CONTEXT ( ( #125, #124, #123 ) ) REPRESENTATION_CONTEXT ( 'NONE', 'WORKASPACE' ) );
#105 =( GEOMETRIC_REPRESENTATION_CONTEXT ( 3 ) GLOBAL_UNCERTAINTY_ASSIGNED_CONTEXT ( ( #69 ) ) GLOBAL_UNIT_ASSIGNED_CONTEXT ( ( #114, #113, #112 ) ) REPRESENTATION_CONTEXT ( 'NONE', 'WORKASPACE' ) );
#106 = APPLICATION_PROTOCOL_DEFINITION ( 'draft international standard', 'automotive_design', 1998, #153 ) ;
#107 = PRODUCT_CONTEXT ( 'NONE', #154, 'mechanical' ) ;
#108 = SHAPE_DEFINITION_REPRESENTATION ( #46, #68 ) ;
#109 = DIRECTION ( 'NONE',  ( 1.000000000000000000, 0.0000000000000000000, 0.0000000000000000000 ) ) ;
#110 = DIRECTION ( 'NONE',  ( 0.0000000000000000000, 0.0000000000000000000, 1.000000000000000000 ) ) ;
#111 = CARTESIAN_POINT ( 'NONE',  ( 0.0000000000000000000, 0.0000000000000000000, 0.0000000000000000000 ) ) ;
#112 =( NAMED_UNIT ( * ) SI_UNIT ( $, .STERADIAN. ) SOLID_ANGLE_UNIT ( ) );
#113 =( NAMED_UNIT ( * ) PLANE_ANGLE_UNIT ( ) SI_UNIT ( $, .RADIAN. ) );
#114 =( CONVERSION_BASED_UNIT ( 'INCH', #149 ) LENGTH_UNIT ( ) NAMED_UNIT ( #38 ) );
#115 =( LENGTH_UNIT ( ) NAMED_UNIT ( * ) SI_UNIT ( $, .METRE. ) );
#116 = PRESENTATION_STYLE_ASSIGNMENT (( #117 ) ) ;
#117 = SURFACE_STYLE_USAGE ( .BOTH. , #118 ) ;
#118 = SURFACE_SIDE_STYLE ('',( #119 ) ) ;
#119 = SURFACE_STYLE_FILL_AREA ( #120 ) ;
#120 = FILL_AREA_STYLE ('',( #121 ) ) ;
#121 = FILL_AREA_STYLE_COLOUR ( '', #18 ) ;
#122 = APPLICATION_PROTOCOL_DEFINITION ( 'draft international standard', 'automotive_design', 1998, #154 ) ;
#123 =( NAMED_UNIT ( * ) SI_UNIT ( $, .STERADIAN. ) SOLID_ANGLE_UNIT ( ) );
#124 =( NAMED_UNIT ( * ) PLANE_ANGLE_UNIT ( ) SI_UNIT ( $, .RADIAN. ) );
#125 =( CONVERSION_BASED_UNIT ( 'INCH', #155 ) LENGTH_UNIT ( ) NAMED_UNIT ( #36 ) );
#126 =( LENGTH_UNIT ( ) NAMED_UNIT ( * ) SI_UNIT ( $, .METRE. ) );
#127 = CARTESIAN_POINT ( 'NONE',  ( 0.6250000000000001100, 0.2860549359178873300, 0.0000000000000000000 ) ) ;
#128 = CARTESIAN_POINT ( 'NONE',  ( 7.133164957280768900E-017, 0.4679089225908376100, 0.0000000000000000000 ) ) ;
#129 = CARTESIAN_POINT ( 'NONE',  ( -0.6250000000000001100, 0.2860549359178873300, 7.654042494670959100E-017 ) ) ;
#130 = CARTESIAN_POINT ( 'NONE',  ( 0.0000000000000000000, 0.2860549359178872800, 0.6250000000000000000 ) ) ;
#131 = CARTESIAN_POINT ( 'NONE',  ( 6.697287182837087000E-017, 0.0000000000000000000, -0.4687500000000000000 ) ) ;
#132 = CARTESIAN_POINT ( 'NONE',  ( 0.0000000000000000000, 0.0000000000000000000, 0.4687500000000000000 ) ) ;
#133 = VECTOR ( 'NONE', #268, 39.37007874015748100 ) ;
#134 = AXIS2_PLACEMENT_3D ( 'NONE', #265, #269, #271 ) ;
#135 = PRESENTATION_LAYER_ASSIGNMENT (  '', '', ( #136 ) ) ;
#136 = STYLED_ITEM ( 'NONE', ( #284 ), #20 ) ;
#137 = AXIS2_PLACEMENT_3D ( 'NONE', #262, #263, #264 ) ;
#138 = FACE_OUTER_BOUND ( 'NONE', #231, .T. ) ;
#139 = AXIS2_PLACEMENT_3D ( 'NONE', #276, #248, #195 ) ;
#140 = SPHERICAL_SURFACE ( 'NONE', #139, 1.164934242631778600 ) ;
#141 = VECTOR ( 'NONE', #261, 39.37007874015748100 ) ;
#142 = MECHANICAL_DESIGN_GEOMETRIC_PRESENTATION_REPRESENTATION (  '', ( #136 ), #98 ) ;
#143 = AXIS2_PLACEMENT_3D ( 'NONE', #273, #274, #275 ) ;
#144 = CLOSED_SHELL ( 'NONE', ( #20, #27, #28, #32, #30 ) ) ;
#145 = AXIS2_PLACEMENT_3D ( 'NONE', #256, #257, #258 ) ;
#146 = MECHANICAL_DESIGN_GEOMETRIC_PRESENTATION_REPRESENTATION (  '', ( #147 ), #105 ) ;
#147 = STYLED_ITEM ( 'NONE', ( #116 ), #68 ) ;
#148 = PRESENTATION_LAYER_ASSIGNMENT (  '', '', ( #147 ) ) ;
#149 = LENGTH_MEASURE_WITH_UNIT ( LENGTH_MEASURE( 0.02539999999999999900 ), #115 );
#150 = LENGTH_MEASURE_WITH_UNIT ( LENGTH_MEASURE( 0.02539999999999999900 ), #72 );
#151 =( NAMED_UNIT ( * ) SI_UNIT ( $, .STERADIAN. ) SOLID_ANGLE_UNIT ( ) );
#152 =( NAMED_UNIT ( * ) PLANE_ANGLE_UNIT ( ) SI_UNIT ( $, .RADIAN. ) );
#153 = APPLICATION_CONTEXT ( 'automotive_design' ) ;
#154 = APPLICATION_CONTEXT ( 'automotive_design' ) ;
#155 = LENGTH_MEASURE_WITH_UNIT ( LENGTH_MEASURE( 0.02539999999999999900 ), #126 );
#156 = LENGTH_MEASURE_WITH_UNIT ( LENGTH_MEASURE( 0.02539999999999999900 ), #60 );
#157 = STYLED_ITEM ( 'NONE', ( #169 ), #44 ) ;
#158 = AXIS2_PLACEMENT_3D ( 'NONE', #53, #178, #179 ) ;
#159 = PRESENTATION_LAYER_ASSIGNMENT (  '', '', ( #157 ) ) ;
#160 = MECHANICAL_DESIGN_GEOMETRIC_PRESENTATION_REPRESENTATION (  '', ( #83 ), #102 ) ;
#161 = AXIS2_PLACEMENT_3D ( 'NONE', #177, #175, #171 ) ;
#162 = AXIS2_PLACEMENT_3D ( 'NONE', #181, #182, #180 ) ;
#163 = MECHANICAL_DESIGN_GEOMETRIC_PRESENTATION_REPRESENTATION (  '', ( #157 ), #103 ) ;
#164 = PRESENTATION_LAYER_ASSIGNMENT (  '', '', ( #83 ) ) ;
#165 = AXIS2_PLACEMENT_3D ( 'NONE', #111, #110, #109 ) ;
#166 = PRODUCT_DEFINITION_FORMATION_WITH_SPECIFIED_SOURCE ( 'ANY', '', #37, .NOT_KNOWN. ) ;
#167 = SURFACE_STYLE_USAGE ( .BOTH. , #168 ) ;
#168 = SURFACE_SIDE_STYLE ('',( #170 ) ) ;
#169 = PRESENTATION_STYLE_ASSIGNMENT (( #167 ) ) ;
#170 = SURFACE_STYLE_FILL_AREA ( #174 ) ;
#171 = DIRECTION ( 'NONE',  ( 0.0000000000000000000, 0.0000000000000000000, -1.000000000000000000 ) ) ;
#172 = FILL_AREA_STYLE_COLOUR ( '', #21 ) ;
#173 = CARTESIAN_POINT ( 'NONE',  ( 7.654042494670957900E-017, 0.2860549359178872800, -0.6250000000000000000 ) ) ;
#174 = FILL_AREA_STYLE ('',( #172 ) ) ;
#175 = DIRECTION ( 'NONE',  ( -0.0000000000000000000, -1.000000000000000000, -0.0000000000000000000 ) ) ;
#176 =( NAMED_UNIT ( * ) SI_UNIT ( $, .STERADIAN. ) SOLID_ANGLE_UNIT ( ) );
#177 = CARTESIAN_POINT ( 'NONE',  ( 0.0000000000000000000, 0.2860549359178873300, 0.0000000000000000000 ) ) ;
#178 = DIRECTION ( 'NONE',  ( 0.0000000000000000000, 1.000000000000000000, 0.0000000000000000000 ) ) ;
#179 = DIRECTION ( 'NONE',  ( 0.0000000000000000000, 0.0000000000000000000, 1.000000000000000000 ) ) ;
#180 = DIRECTION ( 'NONE',  ( -1.000000000000000000, 0.0000000000000000000, 0.0000000000000000000 ) ) ;
#181 = CARTESIAN_POINT ( 'NONE',  ( 0.0000000000000000000, -0.6970253200409409800, 0.0000000000000000000 ) ) ;
#182 = DIRECTION ( 'NONE',  ( 0.0000000000000000000, 0.0000000000000000000, -1.000000000000000000 ) ) ;
#183 =( NAMED_UNIT ( * ) SI_UNIT ( $, .STERADIAN. ) SOLID_ANGLE_UNIT ( ) );
#184 =( NAMED_UNIT ( * ) PLANE_ANGLE_UNIT ( ) SI_UNIT ( $, .RADIAN. ) );
#185 =( CONVERSION_BASED_UNIT ( 'INCH', #94 ) LENGTH_UNIT ( ) NAMED_UNIT ( #40 ) );
#186 = CARTESIAN_POINT ( 'NONE',  ( 0.0000000000000000000, 0.0000000000000000000, 0.0000000000000000000 ) ) ;
#187 = SURFACE_SIDE_STYLE ('',( #188 ) ) ;
#188 = SURFACE_STYLE_FILL_AREA ( #190 ) ;
#189 = FILL_AREA_STYLE_COLOUR ( '', #9 ) ;
#190 = FILL_AREA_STYLE ('',( #189 ) ) ;
#191 = DIRECTION ( 'NONE',  ( -0.0000000000000000000, -1.000000000000000000, -0.0000000000000000000 ) ) ;
#192 =( NAMED_UNIT ( * ) PLANE_ANGLE_UNIT ( ) SI_UNIT ( $, .RADIAN. ) );
#193 = DIRECTION ( 'NONE',  ( 0.0000000000000000000, 0.0000000000000000000, -1.000000000000000000 ) ) ;
#194 =( LENGTH_UNIT ( ) NAMED_UNIT ( * ) SI_UNIT ( $, .METRE. ) );
#195 = DIRECTION ( 'NONE',  ( 1.000000000000000000, 0.0000000000000000000, 0.0000000000000000000 ) ) ;
#196 =( CONVERSION_BASED_UNIT ( 'INCH', #79 ) LENGTH_UNIT ( ) NAMED_UNIT ( #42 ) );
#197 = ORIENTED_EDGE ( 'NONE', *, *, #10, .T. ) ;
#198 =( NAMED_UNIT ( * ) PLANE_ANGLE_UNIT ( ) SI_UNIT ( $, .RADIAN. ) );
#199 = SURFACE_SIDE_STYLE ('',( #250 ) ) ;
#200 = FILL_AREA_STYLE ('',( #270 ) ) ;
#201 = PLANE ( 'NONE',  #89 ) ;
#202 = PRESENTATION_STYLE_ASSIGNMENT (( #280 ) ) ;
#203 =( CONVERSION_BASED_UNIT ( 'INCH', #78 ) LENGTH_UNIT ( ) NAMED_UNIT ( #43 ) );
#204 = PRESENTATION_STYLE_ASSIGNMENT (( #272 ) ) ;
#205 = ORIENTED_EDGE ( 'NONE', *, *, #4, .F. ) ;
#206 = ORIENTED_EDGE ( 'NONE', *, *, #23, .F. ) ;
#207 = ORIENTED_EDGE ( 'NONE', *, *, #11, .T. ) ;
#208 = ORIENTED_EDGE ( 'NONE', *, *, #26, .T. ) ;
#209 = ORIENTED_EDGE ( 'NONE', *, *, #26, .F. ) ;
#210 = ORIENTED_EDGE ( 'NONE', *, *, #14, .F. ) ;
#211 = ORIENTED_EDGE ( 'NONE', *, *, #33, .T. ) ;
#212 = ORIENTED_EDGE ( 'NONE', *, *, #13, .F. ) ;
#213 = ORIENTED_EDGE ( 'NONE', *, *, #34, .F. ) ;
#214 = ORIENTED_EDGE ( 'NONE', *, *, #33, .F. ) ;
#215 = ORIENTED_EDGE ( 'NONE', *, *, #10, .F. ) ;
#216 = ORIENTED_EDGE ( 'NONE', *, *, #14, .T. ) ;
#217 = ORIENTED_EDGE ( 'NONE', *, *, #31, .F. ) ;
#218 = ORIENTED_EDGE ( 'NONE', *, *, #13, .T. ) ;
#219 = ORIENTED_EDGE ( 'NONE', *, *, #4, .T. ) ;
#220 = ORIENTED_EDGE ( 'NONE', *, *, #34, .T. ) ;
#221 = ORIENTED_EDGE ( 'NONE', *, *, #11, .F. ) ;
#222 = ORIENTED_EDGE ( 'NONE', *, *, #23, .T. ) ;
#223 = VERTEX_POINT ( 'NONE', #173 ) ;
#224 = VERTEX_POINT ( 'NONE', #132 ) ;
#225 = VERTEX_POINT ( 'NONE', #131 ) ;
#226 = VERTEX_POINT ( 'NONE', #130 ) ;
#227 = VERTEX_POINT ( 'NONE', #129 ) ;
#228 = VERTEX_POINT ( 'NONE', #128 ) ;
#229 = VERTEX_POINT ( 'NONE', #127 ) ;
#230 = EDGE_LOOP ( 'NONE', ( #205, #206, #207, #197, #208 ) ) ;
#231 = EDGE_LOOP ( 'NONE', ( #214, #216, #215, #213 ) ) ;
#232 = DIRECTION ( 'NONE',  ( 0.0000000000000000000, 1.000000000000000000, 0.0000000000000000000 ) ) ;
#233 = DIRECTION ( 'NONE',  ( 0.0000000000000000000, 0.0000000000000000000, 1.000000000000000000 ) ) ;
#234 = FILL_AREA_STYLE_COLOUR ( '', #2 ) ;
#235 = FILL_AREA_STYLE ('',( #234 ) ) ;
#236 = SURFACE_STYLE_FILL_AREA ( #235 ) ;
#237 = SURFACE_SIDE_STYLE ('',( #236 ) ) ;
#238 =( NAMED_UNIT ( * ) SI_UNIT ( $, .STERADIAN. ) SOLID_ANGLE_UNIT ( ) );
#239 =( LENGTH_UNIT ( ) NAMED_UNIT ( * ) SI_UNIT ( $, .METRE. ) );
#240 = SURFACE_STYLE_USAGE ( .BOTH. , #237 ) ;
#241 = PRESENTATION_STYLE_ASSIGNMENT (( #240 ) ) ;
#242 =( NAMED_UNIT ( * ) PLANE_ANGLE_UNIT ( ) SI_UNIT ( $, .RADIAN. ) );
#243 = CARTESIAN_POINT ( 'NONE',  ( 0.0000000000000000000, 0.0000000000000000000, 0.0000000000000000000 ) ) ;
#244 = DIRECTION ( 'NONE',  ( 0.0000000000000000000, -1.000000000000000000, -0.0000000000000000000 ) ) ;
#245 =( LENGTH_UNIT ( ) NAMED_UNIT ( * ) SI_UNIT ( $, .METRE. ) );
#246 = EDGE_LOOP ( 'NONE', ( #217, #219, #218, #220, #221 ) ) ;
#247 =( CONVERSION_BASED_UNIT ( 'INCH', #88 ) LENGTH_UNIT ( ) NAMED_UNIT ( #35 ) );
#248 = DIRECTION ( 'NONE',  ( 0.0000000000000000000, 0.0000000000000000000, 1.000000000000000000 ) ) ;
#249 =( NAMED_UNIT ( * ) SI_UNIT ( $, .STERADIAN. ) SOLID_ANGLE_UNIT ( ) );
#250 = SURFACE_STYLE_FILL_AREA ( #200 ) ;
#251 = DIRECTION ( 'NONE',  ( 0.0000000000000000000, 0.0000000000000000000, -1.000000000000000000 ) ) ;
#252 = EDGE_LOOP ( 'NONE', ( #210, #211, #212, #209 ) ) ;
#253 = EDGE_LOOP ( 'NONE', ( #222, #260 ) ) ;
#254 = LINE ( 'NONE', #255, #141 ) ;
#255 = CARTESIAN_POINT ( 'NONE',  ( 5.740531871003218700E-017, 0.0000000000000000000, -0.4687500000000000000 ) ) ;
#256 = CARTESIAN_POINT ( 'NONE',  ( 0.0000000000000000000, 0.0000000000000000000, 0.0000000000000000000 ) ) ;
#257 = DIRECTION ( 'NONE',  ( -0.0000000000000000000, -1.000000000000000000, -0.0000000000000000000 ) ) ;
#258 = DIRECTION ( 'NONE',  ( 0.0000000000000000000, 0.0000000000000000000, -1.000000000000000000 ) ) ;
#259 = CARTESIAN_POINT ( 'NONE',  ( 0.0000000000000000000, 0.2860549359178873300, 0.0000000000000000000 ) ) ;
#260 = ORIENTED_EDGE ( 'NONE', *, *, #31, .T. ) ;
#261 = DIRECTION ( 'NONE',  ( 5.870617753657747800E-017, 0.8776116341084785300, -0.4793723184305139800 ) ) ;
#262 = CARTESIAN_POINT ( 'NONE',  ( 0.0000000000000000000, 0.2860549359178873300, 0.0000000000000000000 ) ) ;
#263 = DIRECTION ( 'NONE',  ( -0.0000000000000000000, -1.000000000000000000, -0.0000000000000000000 ) ) ;
#264 = DIRECTION ( 'NONE',  ( 0.0000000000000000000, 0.0000000000000000000, -1.000000000000000000 ) ) ;
#265 = CARTESIAN_POINT ( 'NONE',  ( 0.0000000000000000000, 0.2860549359178873300, 0.0000000000000000000 ) ) ;
#266 = LINE ( 'NONE', #267, #133 ) ;
#267 = CARTESIAN_POINT ( 'NONE',  ( 0.0000000000000000000, 0.0000000000000000000, 0.4687500000000000000 ) ) ;
#268 = DIRECTION ( 'NONE',  ( 0.0000000000000000000, 0.8776116341084785300, 0.4793723184305139800 ) ) ;
#269 = DIRECTION ( 'NONE',  ( -0.0000000000000000000, -1.000000000000000000, -0.0000000000000000000 ) ) ;
#270 = FILL_AREA_STYLE_COLOUR ( '', #12 ) ;
#271 = DIRECTION ( 'NONE',  ( 0.0000000000000000000, 0.0000000000000000000, -1.000000000000000000 ) ) ;
#272 = SURFACE_STYLE_USAGE ( .BOTH. , #199 ) ;
#273 = CARTESIAN_POINT ( 'NONE',  ( 0.0000000000000000000, -0.6970253200409409800, 0.0000000000000000000 ) ) ;
#274 = DIRECTION ( 'NONE',  ( 1.224646799147353200E-016, -0.0000000000000000000, 1.000000000000000000 ) ) ;
#275 = DIRECTION ( 'NONE',  ( 1.000000000000000000, 0.0000000000000000000, -1.224646799147353200E-016 ) ) ;
#276 = CARTESIAN_POINT ( 'NONE',  ( 0.0000000000000000000, -0.6970253200409409800, 0.0000000000000000000 ) ) ;
#277 = FILL_AREA_STYLE_COLOUR ( '', #17 ) ;
#278 = FILL_AREA_STYLE ('',( #277 ) ) ;
#279 = SURFACE_STYLE_FILL_AREA ( #278 ) ;
#280 = SURFACE_STYLE_USAGE ( .BOTH. , #187 ) ;
#281 = SURFACE_SIDE_STYLE ('',( #279 ) ) ;
#282 = SURFACE_STYLE_USAGE ( .BOTH. , #281 ) ;
#283 =( NAMED_UNIT ( * ) SI_UNIT ( $, .STERADIAN. ) SOLID_ANGLE_UNIT ( ) );
#284 = PRESENTATION_STYLE_ASSIGNMENT (( #282 ) ) ;
#285 =( LENGTH_UNIT ( ) NAMED_UNIT ( * ) SI_UNIT ( $, .METRE. ) );
ENDSEC;
END-ISO-10303-21;
