ISO-10303-21;
HEADER;
FILE_DESCRIPTION (( 'STEP AP214' ),
    '1' );
FILE_NAME ('C1000H-M.step',
    '2012-04-20T20:46:30',
    ( '' ),
    ( '' ),
    'SwSTEP 2.0',
    'SolidWorks 2012',
    '' );
FILE_SCHEMA (( 'AUTOMOTIVE_DESIGN' ));
ENDSEC;

DATA;
#1 = UNCERTAINTY_MEASURE_WITH_UNIT (LENGTH_MEASURE( 1.000000000000000100E-005 ), #266, 'distance_accuracy_value', 'NONE');
#2 = UNCERTAINTY_MEASURE_WITH_UNIT (LENGTH_MEASURE( 1.000000000000000100E-005 ), #167, 'distance_accuracy_value', 'NONE');
#3 = UNCERTAINTY_MEASURE_WITH_UNIT (LENGTH_MEASURE( 1.000000000000000100E-005 ), #279, 'distance_accuracy_value', 'NONE');
#4 = UNCERTAINTY_MEASURE_WITH_UNIT (LENGTH_MEASURE( 1.000000000000000100E-005 ), #340, 'distance_accuracy_value', 'NONE');
#5 = UNCERTAINTY_MEASURE_WITH_UNIT (LENGTH_MEASURE( 1.000000000000000100E-005 ), #329, 'distance_accuracy_value', 'NONE');
#6 = UNCERTAINTY_MEASURE_WITH_UNIT (LENGTH_MEASURE( 1.000000000000000100E-005 ), #227, 'distance_accuracy_value', 'NONE');
#7 = ORIENTED_EDGE ( 'NONE', *, *, #35, .T. ) ;
#8 = VECTOR ( 'NONE', #288, 39.37007874015748100 ) ;
#9 = ORIENTED_EDGE ( 'NONE', *, *, #389, .T. ) ;
#10 = ORIENTED_EDGE ( 'NONE', *, *, #75, .T. ) ;
#11 = VECTOR ( 'NONE', #249, 39.37007874015748100 ) ;
#12 = STYLED_ITEM ( 'NONE', ( #264 ), #115 ) ;
#13 = VECTOR ( 'NONE', #252, 39.37007874015748100 ) ;
#14 = AXIS2_PLACEMENT_3D ( 'NONE', #269, #270, #271 ) ;
#15 = VECTOR ( 'NONE', #258, 39.37007874015748100 ) ;
#16 = VECTOR ( 'NONE', #255, 39.37007874015748100 ) ;
#17 = VECTOR ( 'NONE', #246, 39.37007874015748100 ) ;
#18 = ORIENTED_EDGE ( 'NONE', *, *, #114, .T. ) ;
#19 = ORIENTED_EDGE ( 'NONE', *, *, #391, .F. ) ;
#20 = ORIENTED_EDGE ( 'NONE', *, *, #393, .F. ) ;
#21 = ORIENTED_EDGE ( 'NONE', *, *, #134, .T. ) ;
#22 = ORIENTED_EDGE ( 'NONE', *, *, #107, .F. ) ;
#23 = ORIENTED_EDGE ( 'NONE', *, *, #397, .T. ) ;
#24 = ORIENTED_EDGE ( 'NONE', *, *, #110, .T. ) ;
#25 = ORIENTED_EDGE ( 'NONE', *, *, #109, .T. ) ;
#26 = ORIENTED_EDGE ( 'NONE', *, *, #390, .T. ) ;
#27 = ORIENTED_EDGE ( 'NONE', *, *, #394, .F. ) ;
#28 = ORIENTED_EDGE ( 'NONE', *, *, #387, .T. ) ;
#29 = ORIENTED_EDGE ( 'NONE', *, *, #389, .F. ) ;
#30 = ORIENTED_EDGE ( 'NONE', *, *, #388, .F. ) ;
#31 = MANIFOLD_SOLID_BREP ( 'Boss-Extrude2', #118 ) ;
#32 = PRODUCT_DEFINITION_SHAPE ( 'NONE', 'NONE',  #78 ) ;
#33 = PRODUCT_DEFINITION_CONTEXT ( 'detailed design', #136, 'design' ) ;
#34 = ADVANCED_BREP_SHAPE_REPRESENTATION ( 'C1000H-M', ( #31, #151 ), #360 ) ;
#35 = EDGE_CURVE ( 'NONE', #64, #62, #170, .T. ) ;
#36 = ADVANCED_FACE ( 'NONE', ( #120 ), #173, .F. ) ;
#37 = ADVANCED_FACE ( 'NONE', ( #126 ), #177, .F. ) ;
#38 = ADVANCED_FACE ( 'NONE', ( #374 ), #181, .F. ) ;
#39 = ADVANCED_FACE ( 'NONE', ( #117 ), #185, .F. ) ;
#40 = ADVANCED_FACE ( 'NONE', ( #376 ), #189, .F. ) ;
#41 = ADVANCED_FACE ( 'NONE', ( #379 ), #193, .T. ) ;
#42 = ADVANCED_FACE ( 'NONE', ( #384 ), #197, .F. ) ;
#43 = VECTOR ( 'NONE', #292, 39.37007874015748100 ) ;
#44 = FACE_OUTER_BOUND ( 'NONE', #61, .T. ) ;
#45 = PRESENTATION_LAYER_ASSIGNMENT (  '', '', ( #51 ) ) ;
#46 = VECTOR ( 'NONE', #239, 39.37007874015748100 ) ;
#47 = MECHANICAL_DESIGN_GEOMETRIC_PRESENTATION_REPRESENTATION (  '', ( #51 ), #357 ) ;
#48 = LENGTH_MEASURE_WITH_UNIT ( LENGTH_MEASURE( 0.02539999999999999900 ), #226 );
#49 = VECTOR ( 'NONE', #219, 39.37007874015748100 ) ;
#50 = VECTOR ( 'NONE', #243, 39.37007874015748100 ) ;
#51 = STYLED_ITEM ( 'NONE', ( #225 ), #77 ) ;
#52 = VERTEX_POINT ( 'NONE', #201 ) ;
#53 = EDGE_LOOP ( 'NONE', ( #7, #153, #154, #156 ) ) ;
#54 = VERTEX_POINT ( 'NONE', #202 ) ;
#55 = EDGE_LOOP ( 'NONE', ( #91, #89, #90, #87 ) ) ;
#56 = EDGE_LOOP ( 'NONE', ( #24, #23, #26, #21 ) ) ;
#57 = EDGE_LOOP ( 'NONE', ( #371, #369, #370, #368 ) ) ;
#58 = VERTEX_POINT ( 'NONE', #203 ) ;
#59 = EDGE_LOOP ( 'NONE', ( #20, #19, #364, #22 ) ) ;
#60 = VERTEX_POINT ( 'NONE', #204 ) ;
#61 = EDGE_LOOP ( 'NONE', ( #363, #362, #10, #9 ) ) ;
#62 = VERTEX_POINT ( 'NONE', #205 ) ;
#63 = EDGE_LOOP ( 'NONE', ( #86, #85, #88, #29, #30, #28, #27, #25 ) ) ;
#64 = VERTEX_POINT ( 'NONE', #206 ) ;
#65 = EDGE_LOOP ( 'NONE', ( #73, #18, #373, #372 ) ) ;
#66 = EDGE_LOOP ( 'NONE', ( #367, #365, #366, #96, #94, #95, #93, #92 ) ) ;
#67 = VERTEX_POINT ( 'NONE', #207 ) ;
#68 = VERTEX_POINT ( 'NONE', #208 ) ;
#69 = VERTEX_POINT ( 'NONE', #209 ) ;
#70 = VERTEX_POINT ( 'NONE', #210 ) ;
#71 = VERTEX_POINT ( 'NONE', #211 ) ;
#72 = EDGE_LOOP ( 'NONE', ( #157, #158, #159, #155 ) ) ;
#73 = ORIENTED_EDGE ( 'NONE', *, *, #35, .F. ) ;
#74 = VERTEX_POINT ( 'NONE', #212 ) ;
#75 = EDGE_CURVE ( 'NONE', #52, #58, #213, .T. ) ;
#76 = EDGE_CURVE ( 'NONE', #99, #54, #217, .T. ) ;
#77 = ADVANCED_FACE ( 'NONE', ( #377 ), #216, .T. ) ;
#78 = PRODUCT_DEFINITION ( 'UNKNOWN', '', #152, #33 ) ;
#79 = COLOUR_RGB ( '',1.000000000000000000, 0.1686274509803921700, 0.1686274509803921700 ) ;
#80 = COLOUR_RGB ( '',1.000000000000000000, 0.1686274509803921700, 0.1686274509803921700 ) ;
#81 = COLOUR_RGB ( '',0.5686274509803921400, 0.5686274509803921400, 0.5882352941176470800 ) ;
#82 = PRODUCT_RELATED_PRODUCT_CATEGORY ( 'part', '', ( #353 ) ) ;
#83 = COLOUR_RGB ( '',1.000000000000000000, 0.1686274509803921700, 0.1686274509803921700 ) ;
#84 = COLOUR_RGB ( '',0.5686274509803921400, 0.5686274509803921400, 0.5882352941176470800 ) ;
#85 = ORIENTED_EDGE ( 'NONE', *, *, #133, .F. ) ;
#86 = ORIENTED_EDGE ( 'NONE', *, *, #391, .T. ) ;
#87 = ORIENTED_EDGE ( 'NONE', *, *, #135, .T. ) ;
#88 = ORIENTED_EDGE ( 'NONE', *, *, #390, .F. ) ;
#89 = ORIENTED_EDGE ( 'NONE', *, *, #109, .F. ) ;
#90 = ORIENTED_EDGE ( 'NONE', *, *, #396, .F. ) ;
#91 = ORIENTED_EDGE ( 'NONE', *, *, #392, .T. ) ;
#92 = ORIENTED_EDGE ( 'NONE', *, *, #395, .T. ) ;
#93 = ORIENTED_EDGE ( 'NONE', *, *, #110, .F. ) ;
#94 = ORIENTED_EDGE ( 'NONE', *, *, #112, .F. ) ;
#95 = ORIENTED_EDGE ( 'NONE', *, *, #111, .T. ) ;
#96 = ORIENTED_EDGE ( 'NONE', *, *, #113, .F. ) ;
#97 = VERTEX_POINT ( 'NONE', #233 ) ;
#98 = VERTEX_POINT ( 'NONE', #234 ) ;
#99 = VERTEX_POINT ( 'NONE', #235 ) ;
#100 = VERTEX_POINT ( 'NONE', #236 ) ;
#101 = LENGTH_MEASURE_WITH_UNIT ( LENGTH_MEASURE( 0.02539999999999999900 ), #328 );
#102 = MECHANICAL_DESIGN_GEOMETRIC_PRESENTATION_REPRESENTATION (  '', ( #12 ), #358 ) ;
#103 = PRESENTATION_LAYER_ASSIGNMENT (  '', '', ( #12 ) ) ;
#104 = AXIS2_PLACEMENT_3D ( 'NONE', #283, #284, #285 ) ;
#105 = LENGTH_MEASURE_WITH_UNIT ( LENGTH_MEASURE( 0.02539999999999999900 ), #265 );
#106 = FACE_OUTER_BOUND ( 'NONE', #53, .T. ) ;
#107 = EDGE_CURVE ( 'NONE', #60, #67, #237, .T. ) ;
#108 = VECTOR ( 'NONE', #295, 39.37007874015748100 ) ;
#109 = EDGE_CURVE ( 'NONE', #74, #100, #241, .T. ) ;
#110 = EDGE_CURVE ( 'NONE', #69, #98, #244, .T. ) ;
#111 = EDGE_CURVE ( 'NONE', #52, #98, #247, .T. ) ;
#112 = EDGE_CURVE ( 'NONE', #52, #99, #250, .T. ) ;
#113 = EDGE_CURVE ( 'NONE', #99, #64, #253, .T. ) ;
#114 = EDGE_CURVE ( 'NONE', #64, #70, #256, .T. ) ;
#115 = ADVANCED_FACE ( 'NONE', ( #44 ), #240, .T. ) ;
#116 = ADVANCED_FACE ( 'NONE', ( #106 ), #282, .F. ) ;
#117 = FACE_OUTER_BOUND ( 'NONE', #63, .T. ) ;
#118 = CLOSED_SHELL ( 'NONE', ( #42, #36, #37, #38, #39, #40, #41, #115, #116, #77 ) ) ;
#119 = VECTOR ( 'NONE', #172, 39.37007874015748100 ) ;
#120 = FACE_OUTER_BOUND ( 'NONE', #57, .T. ) ;
#121 = AXIS2_PLACEMENT_3D ( 'NONE', #174, #175, #176 ) ;
#122 = STYLED_ITEM ( 'NONE', ( #165 ), #31 ) ;
#123 = MECHANICAL_DESIGN_GEOMETRIC_PRESENTATION_REPRESENTATION (  '', ( #122 ), #356 ) ;
#124 = VECTOR ( 'NONE', #300, 39.37007874015748100 ) ;
#125 = PRESENTATION_LAYER_ASSIGNMENT (  '', '', ( #122 ) ) ;
#126 = FACE_OUTER_BOUND ( 'NONE', #66, .T. ) ;
#127 = LENGTH_MEASURE_WITH_UNIT ( LENGTH_MEASURE( 0.02539999999999999900 ), #166 );
#128 = AXIS2_PLACEMENT_3D ( 'NONE', #182, #183, #184 ) ;
#129 = STYLED_ITEM ( 'NONE', ( #277 ), #116 ) ;
#130 = PRESENTATION_LAYER_ASSIGNMENT (  '', '', ( #129 ) ) ;
#131 = LENGTH_MEASURE_WITH_UNIT ( LENGTH_MEASURE( 0.02539999999999999900 ), #278 );
#132 = MECHANICAL_DESIGN_GEOMETRIC_PRESENTATION_REPRESENTATION (  '', ( #129 ), #359 ) ;
#133 = EDGE_CURVE ( 'NONE', #68, #71, #286, .T. ) ;
#134 = EDGE_CURVE ( 'NONE', #68, #69, #290, .T. ) ;
#135 = EDGE_CURVE ( 'NONE', #70, #67, #293, .T. ) ;
#136 = APPLICATION_CONTEXT ( 'automotive_design' ) ;
#137 = APPLICATION_CONTEXT ( 'automotive_design' ) ;
#138 = VECTOR ( 'NONE', #303, 39.37007874015748100 ) ;
#139 = VECTOR ( 'NONE', #306, 39.37007874015748100 ) ;
#140 = VECTOR ( 'NONE', #309, 39.37007874015748100 ) ;
#141 = VECTOR ( 'NONE', #312, 39.37007874015748100 ) ;
#142 = VECTOR ( 'NONE', #315, 39.37007874015748100 ) ;
#143 = VECTOR ( 'NONE', #318, 39.37007874015748100 ) ;
#144 = VECTOR ( 'NONE', #321, 39.37007874015748100 ) ;
#145 = VECTOR ( 'NONE', #324, 39.37007874015748100 ) ;
#146 = VECTOR ( 'NONE', #327, 39.37007874015748100 ) ;
#147 = STYLED_ITEM ( 'NONE', ( #338 ), #34 ) ;
#148 = PRESENTATION_LAYER_ASSIGNMENT (  '', '', ( #147 ) ) ;
#149 = MECHANICAL_DESIGN_GEOMETRIC_PRESENTATION_REPRESENTATION (  '', ( #147 ), #361 ) ;
#150 = LENGTH_MEASURE_WITH_UNIT ( LENGTH_MEASURE( 0.02539999999999999900 ), #339 );
#151 = AXIS2_PLACEMENT_3D ( 'NONE', #343, #344, #345 ) ;
#152 = PRODUCT_DEFINITION_FORMATION_WITH_SPECIFIED_SOURCE ( 'ANY', '', #353, .NOT_KNOWN. ) ;
#153 = ORIENTED_EDGE ( 'NONE', *, *, #387, .F. ) ;
#154 = ORIENTED_EDGE ( 'NONE', *, *, #76, .F. ) ;
#155 = ORIENTED_EDGE ( 'NONE', *, *, #388, .T. ) ;
#156 = ORIENTED_EDGE ( 'NONE', *, *, #113, .T. ) ;
#157 = ORIENTED_EDGE ( 'NONE', *, *, #75, .F. ) ;
#158 = ORIENTED_EDGE ( 'NONE', *, *, #112, .T. ) ;
#159 = ORIENTED_EDGE ( 'NONE', *, *, #76, .T. ) ;
#160 = FILL_AREA_STYLE_COLOUR ( '', #81 ) ;
#161 = FILL_AREA_STYLE ('',( #160 ) ) ;
#162 = SURFACE_STYLE_FILL_AREA ( #161 ) ;
#163 = SURFACE_SIDE_STYLE ('',( #162 ) ) ;
#164 = SURFACE_STYLE_USAGE ( .BOTH. , #163 ) ;
#165 = PRESENTATION_STYLE_ASSIGNMENT (( #164 ) ) ;
#166 =( LENGTH_UNIT ( ) NAMED_UNIT ( * ) SI_UNIT ( $, .METRE. ) );
#167 =( CONVERSION_BASED_UNIT ( 'INCH', #127 ) LENGTH_UNIT ( ) NAMED_UNIT ( #349 ) );
#168 =( NAMED_UNIT ( * ) PLANE_ANGLE_UNIT ( ) SI_UNIT ( $, .RADIAN. ) );
#169 =( NAMED_UNIT ( * ) SI_UNIT ( $, .STERADIAN. ) SOLID_ANGLE_UNIT ( ) );
#170 = LINE ( 'NONE', #171, #119 ) ;
#171 = CARTESIAN_POINT ( 'NONE',  ( 0.0000000000000000000, 1.000000000000000000, -0.5156250000000000000 ) ) ;
#172 = DIRECTION ( 'NONE',  ( -1.000000000000000000, 0.0000000000000000000, 0.0000000000000000000 ) ) ;
#173 = PLANE ( 'NONE',  #121 ) ;
#174 = CARTESIAN_POINT ( 'NONE',  ( 1.000000000000000000, 1.000000000000000000, -9.184850993605148400E-017 ) ) ;
#175 = DIRECTION ( 'NONE',  ( -9.184850993605148400E-017, 0.0000000000000000000, -1.000000000000000000 ) ) ;
#176 = DIRECTION ( 'NONE',  ( -1.000000000000000000, 0.0000000000000000000, 9.184850993605148400E-017 ) ) ;
#177 = PLANE ( 'NONE',  #375 ) ;
#178 = CARTESIAN_POINT ( 'NONE',  ( 0.9999999999999996700, 1.000000000000000000, -1.000000000000000000 ) ) ;
#179 = DIRECTION ( 'NONE',  ( -1.000000000000000000, 0.0000000000000000000, 2.731847993664263700E-016 ) ) ;
#180 = DIRECTION ( 'NONE',  ( 2.731847993664263700E-016, 0.0000000000000000000, 1.000000000000000000 ) ) ;
#181 = PLANE ( 'NONE',  #128 ) ;
#182 = CARTESIAN_POINT ( 'NONE',  ( 0.0000000000000000000, 1.000000000000000000, -1.000000000000000000 ) ) ;
#183 = DIRECTION ( 'NONE',  ( 0.0000000000000000000, 0.0000000000000000000, 1.000000000000000000 ) ) ;
#184 = DIRECTION ( 'NONE',  ( 1.000000000000000000, 0.0000000000000000000, -0.0000000000000000000 ) ) ;
#185 = PLANE ( 'NONE',  #381 ) ;
#186 = CARTESIAN_POINT ( 'NONE',  ( 0.0000000000000000000, 1.000000000000000000, 0.0000000000000000000 ) ) ;
#187 = DIRECTION ( 'NONE',  ( 1.000000000000000000, -0.0000000000000000000, 0.0000000000000000000 ) ) ;
#188 = DIRECTION ( 'NONE',  ( 0.0000000000000000000, 0.0000000000000000000, -1.000000000000000000 ) ) ;
#189 = PLANE ( 'NONE',  #380 ) ;
#190 = CARTESIAN_POINT ( 'NONE',  ( 0.0000000000000000000, 1.000000000000000000, 0.0000000000000000000 ) ) ;
#191 = DIRECTION ( 'NONE',  ( 0.0000000000000000000, -1.000000000000000000, -0.0000000000000000000 ) ) ;
#192 = DIRECTION ( 'NONE',  ( 0.0000000000000000000, 0.0000000000000000000, -1.000000000000000000 ) ) ;
#193 = PLANE ( 'NONE',  #382 ) ;
#194 = CARTESIAN_POINT ( 'NONE',  ( 0.0000000000000000000, 0.0000000000000000000, 0.0000000000000000000 ) ) ;
#195 = DIRECTION ( 'NONE',  ( 0.0000000000000000000, -1.000000000000000000, -0.0000000000000000000 ) ) ;
#196 = DIRECTION ( 'NONE',  ( 0.0000000000000000000, 0.0000000000000000000, -1.000000000000000000 ) ) ;
#197 = PLANE ( 'NONE',  #383 ) ;
#198 = CARTESIAN_POINT ( 'NONE',  ( 0.0000000000000000000, 1.000000000000000000, 0.0000000000000000000 ) ) ;
#199 = DIRECTION ( 'NONE',  ( 0.0000000000000000000, -1.000000000000000000, -0.0000000000000000000 ) ) ;
#200 = DIRECTION ( 'NONE',  ( 0.0000000000000000000, 0.0000000000000000000, -1.000000000000000000 ) ) ;
#201 = CARTESIAN_POINT ( 'NONE',  ( 0.9999999999999998900, 1.000100000000000000, -0.4843750000000000000 ) ) ;
#202 = CARTESIAN_POINT ( 'NONE',  ( 0.0000000000000000000, 1.000100000000000000, -0.5156250000000000000 ) ) ;
#203 = CARTESIAN_POINT ( 'NONE',  ( 0.0000000000000000000, 1.000100000000000000, -0.4843750000000000000 ) ) ;
#204 = CARTESIAN_POINT ( 'NONE',  ( 1.000000000000000000, 0.0000000000000000000, -9.184850993605148400E-017 ) ) ;
#205 = CARTESIAN_POINT ( 'NONE',  ( 0.0000000000000000000, 1.000000000000000000, -0.5156250000000000000 ) ) ;
#206 = CARTESIAN_POINT ( 'NONE',  ( 0.9999999999999998900, 1.000000000000000000, -0.5156250000000000000 ) ) ;
#207 = CARTESIAN_POINT ( 'NONE',  ( 0.9999999999999996700, 0.0000000000000000000, -1.000000000000000000 ) ) ;
#208 = CARTESIAN_POINT ( 'NONE',  ( 0.0000000000000000000, 1.000000000000000000, 0.0000000000000000000 ) ) ;
#209 = CARTESIAN_POINT ( 'NONE',  ( 1.000000000000000000, 1.000000000000000000, -9.184850993605148400E-017 ) ) ;
#210 = CARTESIAN_POINT ( 'NONE',  ( 0.9999999999999996700, 1.000000000000000000, -1.000000000000000000 ) ) ;
#211 = CARTESIAN_POINT ( 'NONE',  ( 0.0000000000000000000, 0.0000000000000000000, 0.0000000000000000000 ) ) ;
#212 = CARTESIAN_POINT ( 'NONE',  ( 0.0000000000000000000, 1.000000000000000000, -1.000000000000000000 ) ) ;
#213 = LINE ( 'NONE', #214, #385 ) ;
#214 = CARTESIAN_POINT ( 'NONE',  ( 0.0000000000000000000, 1.000100000000000000, -0.4843750000000000000 ) ) ;
#215 = DIRECTION ( 'NONE',  ( -1.000000000000000000, 0.0000000000000000000, 0.0000000000000000000 ) ) ;
#216 = PLANE ( 'NONE',  #386 ) ;
#217 = LINE ( 'NONE', #218, #49 ) ;
#218 = CARTESIAN_POINT ( 'NONE',  ( 0.0000000000000000000, 1.000100000000000000, -0.5156250000000000000 ) ) ;
#219 = DIRECTION ( 'NONE',  ( -1.000000000000000000, 0.0000000000000000000, 0.0000000000000000000 ) ) ;
#220 = FILL_AREA_STYLE_COLOUR ( '', #80 ) ;
#221 = FILL_AREA_STYLE ('',( #220 ) ) ;
#222 = SURFACE_STYLE_FILL_AREA ( #221 ) ;
#223 = SURFACE_SIDE_STYLE ('',( #222 ) ) ;
#224 = SURFACE_STYLE_USAGE ( .BOTH. , #223 ) ;
#225 = PRESENTATION_STYLE_ASSIGNMENT (( #224 ) ) ;
#226 =( LENGTH_UNIT ( ) NAMED_UNIT ( * ) SI_UNIT ( $, .METRE. ) );
#227 =( CONVERSION_BASED_UNIT ( 'INCH', #48 ) LENGTH_UNIT ( ) NAMED_UNIT ( #350 ) );
#228 =( NAMED_UNIT ( * ) PLANE_ANGLE_UNIT ( ) SI_UNIT ( $, .RADIAN. ) );
#229 =( NAMED_UNIT ( * ) SI_UNIT ( $, .STERADIAN. ) SOLID_ANGLE_UNIT ( ) );
#230 = CARTESIAN_POINT ( 'NONE',  ( 0.0000000000000000000, 1.000100000000000000, 0.0000000000000000000 ) ) ;
#231 = DIRECTION ( 'NONE',  ( 0.0000000000000000000, 1.000000000000000000, -0.0000000000000000000 ) ) ;
#232 = DIRECTION ( 'NONE',  ( 0.0000000000000000000, 0.0000000000000000000, 1.000000000000000000 ) ) ;
#233 = CARTESIAN_POINT ( 'NONE',  ( 0.0000000000000000000, 1.000000000000000000, -0.4843750000000000000 ) ) ;
#234 = CARTESIAN_POINT ( 'NONE',  ( 0.9999999999999998900, 1.000000000000000000, -0.4843750000000000000 ) ) ;
#235 = CARTESIAN_POINT ( 'NONE',  ( 0.9999999999999998900, 1.000100000000000000, -0.5156250000000000000 ) ) ;
#236 = CARTESIAN_POINT ( 'NONE',  ( 0.0000000000000000000, 0.0000000000000000000, -1.000000000000000000 ) ) ;
#237 = LINE ( 'NONE', #238, #46 ) ;
#238 = CARTESIAN_POINT ( 'NONE',  ( 0.9999999999999996700, 0.0000000000000000000, -1.000000000000000000 ) ) ;
#239 = DIRECTION ( 'NONE',  ( -2.731847993664263700E-016, -0.0000000000000000000, -1.000000000000000000 ) ) ;
#240 = PLANE ( 'NONE',  #14 ) ;
#241 = LINE ( 'NONE', #242, #50 ) ;
#242 = CARTESIAN_POINT ( 'NONE',  ( 0.0000000000000000000, 1.000000000000000000, -1.000000000000000000 ) ) ;
#243 = DIRECTION ( 'NONE',  ( -0.0000000000000000000, -1.000000000000000000, -0.0000000000000000000 ) ) ;
#244 = LINE ( 'NONE', #245, #17 ) ;
#245 = CARTESIAN_POINT ( 'NONE',  ( 0.9999999999999996700, 1.000000000000000000, -1.000000000000000000 ) ) ;
#246 = DIRECTION ( 'NONE',  ( -2.731847993664263700E-016, -0.0000000000000000000, -1.000000000000000000 ) ) ;
#247 = LINE ( 'NONE', #248, #11 ) ;
#248 = CARTESIAN_POINT ( 'NONE',  ( 0.9999999999999998900, 1.000100000000000000, -0.4843750000000000000 ) ) ;
#249 = DIRECTION ( 'NONE',  ( -0.0000000000000000000, -1.000000000000000000, -0.0000000000000000000 ) ) ;
#250 = LINE ( 'NONE', #251, #13 ) ;
#251 = CARTESIAN_POINT ( 'NONE',  ( 1.000000000000000000, 1.000100000000000000, -2.731847993664263700E-016 ) ) ;
#252 = DIRECTION ( 'NONE',  ( -2.731847993664263700E-016, 0.0000000000000000000, -1.000000000000000000 ) ) ;
#253 = LINE ( 'NONE', #254, #16 ) ;
#254 = CARTESIAN_POINT ( 'NONE',  ( 0.9999999999999998900, 1.000100000000000000, -0.5156250000000000000 ) ) ;
#255 = DIRECTION ( 'NONE',  ( -0.0000000000000000000, -1.000000000000000000, -0.0000000000000000000 ) ) ;
#256 = LINE ( 'NONE', #257, #15 ) ;
#257 = CARTESIAN_POINT ( 'NONE',  ( 0.9999999999999996700, 1.000000000000000000, -1.000000000000000000 ) ) ;
#258 = DIRECTION ( 'NONE',  ( -2.731847993664263700E-016, -0.0000000000000000000, -1.000000000000000000 ) ) ;
#259 = FILL_AREA_STYLE_COLOUR ( '', #79 ) ;
#260 = FILL_AREA_STYLE ('',( #259 ) ) ;
#261 = SURFACE_STYLE_FILL_AREA ( #260 ) ;
#262 = SURFACE_SIDE_STYLE ('',( #261 ) ) ;
#263 = SURFACE_STYLE_USAGE ( .BOTH. , #262 ) ;
#264 = PRESENTATION_STYLE_ASSIGNMENT (( #263 ) ) ;
#265 =( LENGTH_UNIT ( ) NAMED_UNIT ( * ) SI_UNIT ( $, .METRE. ) );
#266 =( CONVERSION_BASED_UNIT ( 'INCH', #105 ) LENGTH_UNIT ( ) NAMED_UNIT ( #351 ) );
#267 =( NAMED_UNIT ( * ) PLANE_ANGLE_UNIT ( ) SI_UNIT ( $, .RADIAN. ) );
#268 =( NAMED_UNIT ( * ) SI_UNIT ( $, .STERADIAN. ) SOLID_ANGLE_UNIT ( ) );
#269 = CARTESIAN_POINT ( 'NONE',  ( 0.0000000000000000000, 1.000100000000000000, -0.4843750000000000000 ) ) ;
#270 = DIRECTION ( 'NONE',  ( 0.0000000000000000000, -0.0000000000000000000, 1.000000000000000000 ) ) ;
#271 = DIRECTION ( 'NONE',  ( 1.000000000000000000, 0.0000000000000000000, -0.0000000000000000000 ) ) ;
#272 = FILL_AREA_STYLE_COLOUR ( '', #83 ) ;
#273 = FILL_AREA_STYLE ('',( #272 ) ) ;
#274 = SURFACE_STYLE_FILL_AREA ( #273 ) ;
#275 = SURFACE_SIDE_STYLE ('',( #274 ) ) ;
#276 = SURFACE_STYLE_USAGE ( .BOTH. , #275 ) ;
#277 = PRESENTATION_STYLE_ASSIGNMENT (( #276 ) ) ;
#278 =( LENGTH_UNIT ( ) NAMED_UNIT ( * ) SI_UNIT ( $, .METRE. ) );
#279 =( CONVERSION_BASED_UNIT ( 'INCH', #131 ) LENGTH_UNIT ( ) NAMED_UNIT ( #352 ) );
#280 =( NAMED_UNIT ( * ) PLANE_ANGLE_UNIT ( ) SI_UNIT ( $, .RADIAN. ) );
#281 =( NAMED_UNIT ( * ) SI_UNIT ( $, .STERADIAN. ) SOLID_ANGLE_UNIT ( ) );
#282 = PLANE ( 'NONE',  #104 ) ;
#283 = CARTESIAN_POINT ( 'NONE',  ( 0.0000000000000000000, 1.000100000000000000, -0.5156250000000000000 ) ) ;
#284 = DIRECTION ( 'NONE',  ( 0.0000000000000000000, -0.0000000000000000000, 1.000000000000000000 ) ) ;
#285 = DIRECTION ( 'NONE',  ( 1.000000000000000000, 0.0000000000000000000, -0.0000000000000000000 ) ) ;
#286 = LINE ( 'NONE', #287, #8 ) ;
#287 = CARTESIAN_POINT ( 'NONE',  ( 0.0000000000000000000, 1.000000000000000000, 0.0000000000000000000 ) ) ;
#288 = DIRECTION ( 'NONE',  ( -0.0000000000000000000, -1.000000000000000000, -0.0000000000000000000 ) ) ;
#289 = LINE ( 'NONE', #296, #378 ) ;
#290 = LINE ( 'NONE', #291, #43 ) ;
#291 = CARTESIAN_POINT ( 'NONE',  ( 1.000000000000000000, 1.000000000000000000, -9.184850993605148400E-017 ) ) ;
#292 = DIRECTION ( 'NONE',  ( 1.000000000000000000, -0.0000000000000000000, -9.184850993605148400E-017 ) ) ;
#293 = LINE ( 'NONE', #294, #108 ) ;
#294 = CARTESIAN_POINT ( 'NONE',  ( 0.9999999999999996700, 1.000000000000000000, -1.000000000000000000 ) ) ;
#295 = DIRECTION ( 'NONE',  ( -0.0000000000000000000, -1.000000000000000000, -0.0000000000000000000 ) ) ;
#296 = CARTESIAN_POINT ( 'NONE',  ( 0.0000000000000000000, 1.000100000000000000, -0.5156250000000000000 ) ) ;
#297 = DIRECTION ( 'NONE',  ( -0.0000000000000000000, -1.000000000000000000, -0.0000000000000000000 ) ) ;
#298 = LINE ( 'NONE', #299, #124 ) ;
#299 = CARTESIAN_POINT ( 'NONE',  ( 0.0000000000000000000, 1.000100000000000000, 0.0000000000000000000 ) ) ;
#300 = DIRECTION ( 'NONE',  ( 0.0000000000000000000, 0.0000000000000000000, 1.000000000000000000 ) ) ;
#301 = LINE ( 'NONE', #302, #138 ) ;
#302 = CARTESIAN_POINT ( 'NONE',  ( 0.0000000000000000000, 1.000100000000000000, -0.4843750000000000000 ) ) ;
#303 = DIRECTION ( 'NONE',  ( -0.0000000000000000000, -1.000000000000000000, -0.0000000000000000000 ) ) ;
#304 = LINE ( 'NONE', #305, #139 ) ;
#305 = CARTESIAN_POINT ( 'NONE',  ( 0.0000000000000000000, 1.000000000000000000, 0.0000000000000000000 ) ) ;
#306 = DIRECTION ( 'NONE',  ( -0.0000000000000000000, -0.0000000000000000000, 1.000000000000000000 ) ) ;
#307 = LINE ( 'NONE', #308, #140 ) ;
#308 = CARTESIAN_POINT ( 'NONE',  ( 0.0000000000000000000, 0.0000000000000000000, 0.0000000000000000000 ) ) ;
#309 = DIRECTION ( 'NONE',  ( -0.0000000000000000000, -0.0000000000000000000, 1.000000000000000000 ) ) ;
#310 = LINE ( 'NONE', #311, #141 ) ;
#311 = CARTESIAN_POINT ( 'NONE',  ( 0.0000000000000000000, 0.0000000000000000000, -1.000000000000000000 ) ) ;
#312 = DIRECTION ( 'NONE',  ( -1.000000000000000000, -0.0000000000000000000, -0.0000000000000000000 ) ) ;
#313 = LINE ( 'NONE', #314, #142 ) ;
#314 = CARTESIAN_POINT ( 'NONE',  ( 1.000000000000000000, 0.0000000000000000000, -9.184850993605148400E-017 ) ) ;
#315 = DIRECTION ( 'NONE',  ( 1.000000000000000000, -0.0000000000000000000, -9.184850993605148400E-017 ) ) ;
#316 = LINE ( 'NONE', #317, #143 ) ;
#317 = CARTESIAN_POINT ( 'NONE',  ( 0.0000000000000000000, 1.000000000000000000, 0.0000000000000000000 ) ) ;
#318 = DIRECTION ( 'NONE',  ( -0.0000000000000000000, -0.0000000000000000000, 1.000000000000000000 ) ) ;
#319 = LINE ( 'NONE', #320, #144 ) ;
#320 = CARTESIAN_POINT ( 'NONE',  ( 1.000000000000000000, 1.000000000000000000, -9.184850993605148400E-017 ) ) ;
#321 = DIRECTION ( 'NONE',  ( -0.0000000000000000000, -1.000000000000000000, -0.0000000000000000000 ) ) ;
#322 = LINE ( 'NONE', #323, #145 ) ;
#323 = CARTESIAN_POINT ( 'NONE',  ( 0.0000000000000000000, 1.000000000000000000, -1.000000000000000000 ) ) ;
#324 = DIRECTION ( 'NONE',  ( -1.000000000000000000, -0.0000000000000000000, -0.0000000000000000000 ) ) ;
#325 = LINE ( 'NONE', #326, #146 ) ;
#326 = CARTESIAN_POINT ( 'NONE',  ( 0.0000000000000000000, 1.000000000000000000, -0.4843750000000000000 ) ) ;
#327 = DIRECTION ( 'NONE',  ( -1.000000000000000000, 0.0000000000000000000, 0.0000000000000000000 ) ) ;
#328 =( LENGTH_UNIT ( ) NAMED_UNIT ( * ) SI_UNIT ( $, .METRE. ) );
#329 =( CONVERSION_BASED_UNIT ( 'INCH', #101 ) LENGTH_UNIT ( ) NAMED_UNIT ( #354 ) );
#330 =( NAMED_UNIT ( * ) PLANE_ANGLE_UNIT ( ) SI_UNIT ( $, .RADIAN. ) );
#331 =( NAMED_UNIT ( * ) SI_UNIT ( $, .STERADIAN. ) SOLID_ANGLE_UNIT ( ) );
#332 = APPLICATION_PROTOCOL_DEFINITION ( 'draft international standard', 'automotive_design', 1998, #137 ) ;
#333 = FILL_AREA_STYLE_COLOUR ( '', #84 ) ;
#334 = FILL_AREA_STYLE ('',( #333 ) ) ;
#335 = SURFACE_STYLE_FILL_AREA ( #334 ) ;
#336 = SURFACE_SIDE_STYLE ('',( #335 ) ) ;
#337 = SURFACE_STYLE_USAGE ( .BOTH. , #336 ) ;
#338 = PRESENTATION_STYLE_ASSIGNMENT (( #337 ) ) ;
#339 =( LENGTH_UNIT ( ) NAMED_UNIT ( * ) SI_UNIT ( $, .METRE. ) );
#340 =( CONVERSION_BASED_UNIT ( 'INCH', #150 ) LENGTH_UNIT ( ) NAMED_UNIT ( #355 ) );
#341 =( NAMED_UNIT ( * ) PLANE_ANGLE_UNIT ( ) SI_UNIT ( $, .RADIAN. ) );
#342 =( NAMED_UNIT ( * ) SI_UNIT ( $, .STERADIAN. ) SOLID_ANGLE_UNIT ( ) );
#343 = CARTESIAN_POINT ( 'NONE',  ( 0.0000000000000000000, 0.0000000000000000000, 0.0000000000000000000 ) ) ;
#344 = DIRECTION ( 'NONE',  ( 0.0000000000000000000, 0.0000000000000000000, 1.000000000000000000 ) ) ;
#345 = DIRECTION ( 'NONE',  ( 1.000000000000000000, 0.0000000000000000000, 0.0000000000000000000 ) ) ;
#346 = SHAPE_DEFINITION_REPRESENTATION ( #32, #34 ) ;
#347 = PRODUCT_CONTEXT ( 'NONE', #137, 'mechanical' ) ;
#348 = APPLICATION_PROTOCOL_DEFINITION ( 'draft international standard', 'automotive_design', 1998, #136 ) ;
#349 = DIMENSIONAL_EXPONENTS ( 1.000000000000000000, 0.0000000000000000000, 0.0000000000000000000, 0.0000000000000000000, 0.0000000000000000000, 0.0000000000000000000, 0.0000000000000000000 ) ;
#350 = DIMENSIONAL_EXPONENTS ( 1.000000000000000000, 0.0000000000000000000, 0.0000000000000000000, 0.0000000000000000000, 0.0000000000000000000, 0.0000000000000000000, 0.0000000000000000000 ) ;
#351 = DIMENSIONAL_EXPONENTS ( 1.000000000000000000, 0.0000000000000000000, 0.0000000000000000000, 0.0000000000000000000, 0.0000000000000000000, 0.0000000000000000000, 0.0000000000000000000 ) ;
#352 = DIMENSIONAL_EXPONENTS ( 1.000000000000000000, 0.0000000000000000000, 0.0000000000000000000, 0.0000000000000000000, 0.0000000000000000000, 0.0000000000000000000, 0.0000000000000000000 ) ;
#353 = PRODUCT ( 'C1000H-M', 'C1000H-M', '', ( #347 ) ) ;
#354 = DIMENSIONAL_EXPONENTS ( 1.000000000000000000, 0.0000000000000000000, 0.0000000000000000000, 0.0000000000000000000, 0.0000000000000000000, 0.0000000000000000000, 0.0000000000000000000 ) ;
#355 = DIMENSIONAL_EXPONENTS ( 1.000000000000000000, 0.0000000000000000000, 0.0000000000000000000, 0.0000000000000000000, 0.0000000000000000000, 0.0000000000000000000, 0.0000000000000000000 ) ;
#356 =( GEOMETRIC_REPRESENTATION_CONTEXT ( 3 ) GLOBAL_UNCERTAINTY_ASSIGNED_CONTEXT ( ( #2 ) ) GLOBAL_UNIT_ASSIGNED_CONTEXT ( ( #167, #168, #169 ) ) REPRESENTATION_CONTEXT ( 'NONE', 'WORKASPACE' ) );
#357 =( GEOMETRIC_REPRESENTATION_CONTEXT ( 3 ) GLOBAL_UNCERTAINTY_ASSIGNED_CONTEXT ( ( #6 ) ) GLOBAL_UNIT_ASSIGNED_CONTEXT ( ( #227, #228, #229 ) ) REPRESENTATION_CONTEXT ( 'NONE', 'WORKASPACE' ) );
#358 =( GEOMETRIC_REPRESENTATION_CONTEXT ( 3 ) GLOBAL_UNCERTAINTY_ASSIGNED_CONTEXT ( ( #1 ) ) GLOBAL_UNIT_ASSIGNED_CONTEXT ( ( #266, #267, #268 ) ) REPRESENTATION_CONTEXT ( 'NONE', 'WORKASPACE' ) );
#359 =( GEOMETRIC_REPRESENTATION_CONTEXT ( 3 ) GLOBAL_UNCERTAINTY_ASSIGNED_CONTEXT ( ( #3 ) ) GLOBAL_UNIT_ASSIGNED_CONTEXT ( ( #279, #280, #281 ) ) REPRESENTATION_CONTEXT ( 'NONE', 'WORKASPACE' ) );
#360 =( GEOMETRIC_REPRESENTATION_CONTEXT ( 3 ) GLOBAL_UNCERTAINTY_ASSIGNED_CONTEXT ( ( #5 ) ) GLOBAL_UNIT_ASSIGNED_CONTEXT ( ( #329, #330, #331 ) ) REPRESENTATION_CONTEXT ( 'NONE', 'WORKASPACE' ) );
#361 =( GEOMETRIC_REPRESENTATION_CONTEXT ( 3 ) GLOBAL_UNCERTAINTY_ASSIGNED_CONTEXT ( ( #4 ) ) GLOBAL_UNIT_ASSIGNED_CONTEXT ( ( #340, #341, #342 ) ) REPRESENTATION_CONTEXT ( 'NONE', 'WORKASPACE' ) );
#362 = ORIENTED_EDGE ( 'NONE', *, *, #111, .F. ) ;
#363 = ORIENTED_EDGE ( 'NONE', *, *, #397, .F. ) ;
#364 = ORIENTED_EDGE ( 'NONE', *, *, #392, .F. ) ;
#365 = ORIENTED_EDGE ( 'NONE', *, *, #135, .F. ) ;
#366 = ORIENTED_EDGE ( 'NONE', *, *, #114, .F. ) ;
#367 = ORIENTED_EDGE ( 'NONE', *, *, #107, .T. ) ;
#368 = ORIENTED_EDGE ( 'NONE', *, *, #133, .T. ) ;
#369 = ORIENTED_EDGE ( 'NONE', *, *, #395, .F. ) ;
#370 = ORIENTED_EDGE ( 'NONE', *, *, #134, .F. ) ;
#371 = ORIENTED_EDGE ( 'NONE', *, *, #393, .T. ) ;
#372 = ORIENTED_EDGE ( 'NONE', *, *, #394, .T. ) ;
#373 = ORIENTED_EDGE ( 'NONE', *, *, #396, .T. ) ;
#374 = FACE_OUTER_BOUND ( 'NONE', #55, .T. ) ;
#375 = AXIS2_PLACEMENT_3D ( 'NONE', #178, #179, #180 ) ;
#376 = FACE_OUTER_BOUND ( 'NONE', #56, .T. ) ;
#377 = FACE_OUTER_BOUND ( 'NONE', #72, .T. ) ;
#378 = VECTOR ( 'NONE', #297, 39.37007874015748100 ) ;
#379 = FACE_OUTER_BOUND ( 'NONE', #59, .T. ) ;
#380 = AXIS2_PLACEMENT_3D ( 'NONE', #190, #191, #192 ) ;
#381 = AXIS2_PLACEMENT_3D ( 'NONE', #186, #187, #188 ) ;
#382 = AXIS2_PLACEMENT_3D ( 'NONE', #194, #195, #196 ) ;
#383 = AXIS2_PLACEMENT_3D ( 'NONE', #198, #199, #200 ) ;
#384 = FACE_OUTER_BOUND ( 'NONE', #65, .T. ) ;
#385 = VECTOR ( 'NONE', #215, 39.37007874015748100 ) ;
#386 = AXIS2_PLACEMENT_3D ( 'NONE', #230, #231, #232 ) ;
#387 = EDGE_CURVE ( 'NONE', #54, #62, #289, .T. ) ;
#388 = EDGE_CURVE ( 'NONE', #54, #58, #298, .T. ) ;
#389 = EDGE_CURVE ( 'NONE', #58, #97, #301, .T. ) ;
#390 = EDGE_CURVE ( 'NONE', #97, #68, #304, .T. ) ;
#391 = EDGE_CURVE ( 'NONE', #100, #71, #307, .T. ) ;
#392 = EDGE_CURVE ( 'NONE', #67, #100, #310, .T. ) ;
#393 = EDGE_CURVE ( 'NONE', #71, #60, #313, .T. ) ;
#394 = EDGE_CURVE ( 'NONE', #74, #62, #316, .T. ) ;
#395 = EDGE_CURVE ( 'NONE', #69, #60, #319, .T. ) ;
#396 = EDGE_CURVE ( 'NONE', #70, #74, #322, .T. ) ;
#397 = EDGE_CURVE ( 'NONE', #98, #97, #325, .T. ) ;
ENDSEC;
END-ISO-10303-21;
