ISO-10303-21;
HEADER;
FILE_DESCRIPTION (( 'STEP AP214' ),
    '1' );
FILE_NAME ('C1500L.step',
    '2012-04-20T20:46:38',
    ( '' ),
    ( '' ),
    'SwSTEP 2.0',
    'SolidWorks 2012',
    '' );
FILE_SCHEMA (( 'AUTOMOTIVE_DESIGN' ));
ENDSEC;

DATA;
#1 = CARTESIAN_POINT ( 'NONE',  ( 0.0000000000000000000, 1.500000000000000200, -1.500000000000000400 ) ) ;
#2 = DIRECTION ( 'NONE',  ( -0.0000000000000000000, -1.000000000000000000, -0.0000000000000000000 ) ) ;
#3 = CARTESIAN_POINT ( 'NONE',  ( 0.0000000000000000000, 0.0000000000000000000, -1.500000000000000400 ) ) ;
#4 = AXIS2_PLACEMENT_3D ( 'NONE', #90, #91, #92 ) ;
#5 = LENGTH_MEASURE_WITH_UNIT ( LENGTH_MEASURE( 0.02539999999999999900 ), #86 );
#6 = MECHANICAL_DESIGN_GEOMETRIC_PRESENTATION_REPRESENTATION (  '', ( #7 ), #164 ) ;
#7 = STYLED_ITEM ( 'NONE', ( #85 ), #194 ) ;
#8 = PRESENTATION_LAYER_ASSIGNMENT (  '', '', ( #7 ) ) ;
#9 =( NAMED_UNIT ( * ) PLANE_ANGLE_UNIT ( ) SI_UNIT ( $, .RADIAN. ) );
#10 =( CONVERSION_BASED_UNIT ( 'INCH', #189 ) LENGTH_UNIT ( ) NAMED_UNIT ( #99 ) );
#11 =( LENGTH_UNIT ( ) NAMED_UNIT ( * ) SI_UNIT ( $, .METRE. ) );
#12 = PRESENTATION_STYLE_ASSIGNMENT (( #13 ) ) ;
#13 = SURFACE_STYLE_USAGE ( .BOTH. , #14 ) ;
#14 = SURFACE_SIDE_STYLE ('',( #15 ) ) ;
#15 = SURFACE_STYLE_FILL_AREA ( #146 ) ;
#16 = CARTESIAN_POINT ( 'NONE',  ( 1.499999999999999800, 0.0000000000000000000, -1.500000000000000400 ) ) ;
#17 = CARTESIAN_POINT ( 'NONE',  ( 1.499999999999999800, 1.500000000000000200, -1.683889348827611000E-016 ) ) ;
#18 = CARTESIAN_POINT ( 'NONE',  ( 0.0000000000000000000, 0.0000000000000000000, 0.0000000000000000000 ) ) ;
#19 = CARTESIAN_POINT ( 'NONE',  ( 1.499999999999999800, 0.0000000000000000000, -1.683889348827611000E-016 ) ) ;
#20 = CARTESIAN_POINT ( 'NONE',  ( 0.0000000000000000000, 1.500000000000000200, 0.0000000000000000000 ) ) ;
#21 = LINE ( 'NONE', #22, #190 ) ;
#22 = CARTESIAN_POINT ( 'NONE',  ( 1.499999999999999800, 0.0000000000000000000, -1.500000000000000400 ) ) ;
#23 = DIRECTION ( 'NONE',  ( -0.0000000000000000000, -0.0000000000000000000, -1.000000000000000000 ) ) ;
#24 = PLANE ( 'NONE',  #207 ) ;
#25 = LINE ( 'NONE', #26, #206 ) ;
#26 = CARTESIAN_POINT ( 'NONE',  ( 1.499999999999999800, 1.500000000000000200, -1.500000000000000400 ) ) ;
#27 = DIRECTION ( 'NONE',  ( -0.0000000000000000000, -1.000000000000000000, -0.0000000000000000000 ) ) ;
#28 = LINE ( 'NONE', #29, #204 ) ;
#29 = CARTESIAN_POINT ( 'NONE',  ( 0.0000000000000000000, 1.500000000000000200, 0.0000000000000000000 ) ) ;
#30 = DIRECTION ( 'NONE',  ( -0.0000000000000000000, -1.000000000000000000, -0.0000000000000000000 ) ) ;
#31 = LINE ( 'NONE', #32, #211 ) ;
#32 = CARTESIAN_POINT ( 'NONE',  ( 1.499999999999999800, 1.500000000000000200, -1.683889348827611000E-016 ) ) ;
#33 = DIRECTION ( 'NONE',  ( 1.000000000000000000, -0.0000000000000000000, -1.122592899218407500E-016 ) ) ;
#34 = LINE ( 'NONE', #35, #210 ) ;
#35 = CARTESIAN_POINT ( 'NONE',  ( 1.499999999999999800, 0.0000000000000000000, -1.683889348827611000E-016 ) ) ;
#36 = DIRECTION ( 'NONE',  ( 1.000000000000000000, -0.0000000000000000000, -1.122592899218407500E-016 ) ) ;
#37 = LINE ( 'NONE', #38, #209 ) ;
#38 = CARTESIAN_POINT ( 'NONE',  ( 0.0000000000000000000, 0.0000000000000000000, -1.500000000000000400 ) ) ;
#39 = DIRECTION ( 'NONE',  ( -1.000000000000000000, -0.0000000000000000000, -0.0000000000000000000 ) ) ;
#40 = LINE ( 'NONE', #41, #208 ) ;
#41 = CARTESIAN_POINT ( 'NONE',  ( 0.0000000000000000000, 1.500000000000000200, -1.500000000000000400 ) ) ;
#42 = DIRECTION ( 'NONE',  ( -0.0000000000000000000, -1.000000000000000000, -0.0000000000000000000 ) ) ;
#43 = LINE ( 'NONE', #44, #205 ) ;
#44 = CARTESIAN_POINT ( 'NONE',  ( 1.499999999999999800, 1.500000000000000200, -1.500000000000000400 ) ) ;
#45 = DIRECTION ( 'NONE',  ( -0.0000000000000000000, -0.0000000000000000000, -1.000000000000000000 ) ) ;
#46 = CARTESIAN_POINT ( 'NONE',  ( 1.499999999999999800, 1.500000000000000200, -1.683889348827611000E-016 ) ) ;
#47 = DIRECTION ( 'NONE',  ( -1.122592899218407700E-016, 0.0000000000000000000, -1.000000000000000000 ) ) ;
#48 = DIRECTION ( 'NONE',  ( -1.000000000000000000, 0.0000000000000000000, 1.122592899218407700E-016 ) ) ;
#49 = PLANE ( 'NONE',  #120 ) ;
#50 = CARTESIAN_POINT ( 'NONE',  ( 0.0000000000000000000, 1.500000000000000200, 0.0000000000000000000 ) ) ;
#51 = DIRECTION ( 'NONE',  ( 1.000000000000000000, -0.0000000000000000000, 0.0000000000000000000 ) ) ;
#52 = DIRECTION ( 'NONE',  ( 0.0000000000000000000, 0.0000000000000000000, -1.000000000000000000 ) ) ;
#53 = LINE ( 'NONE', #54, #109 ) ;
#54 = CARTESIAN_POINT ( 'NONE',  ( 0.0000000000000000000, 1.500000000000000200, -1.500000000000000400 ) ) ;
#55 = DIRECTION ( 'NONE',  ( -1.000000000000000000, -0.0000000000000000000, -0.0000000000000000000 ) ) ;
#56 = PLANE ( 'NONE',  #119 ) ;
#57 = LINE ( 'NONE', #58, #121 ) ;
#58 = CARTESIAN_POINT ( 'NONE',  ( 0.0000000000000000000, 1.500000000000000200, 0.0000000000000000000 ) ) ;
#59 = DIRECTION ( 'NONE',  ( -0.0000000000000000000, -0.0000000000000000000, 1.000000000000000000 ) ) ;
#60 = CARTESIAN_POINT ( 'NONE',  ( 1.499999999999999800, 1.500000000000000200, -1.500000000000000400 ) ) ;
#61 = DIRECTION ( 'NONE',  ( -1.000000000000000000, 0.0000000000000000000, 0.0000000000000000000 ) ) ;
#62 = DIRECTION ( 'NONE',  ( 0.0000000000000000000, 0.0000000000000000000, 1.000000000000000000 ) ) ;
#63 = PLANE ( 'NONE',  #114 ) ;
#64 = CARTESIAN_POINT ( 'NONE',  ( 0.0000000000000000000, 1.500000000000000200, -1.500000000000000400 ) ) ;
#65 = DIRECTION ( 'NONE',  ( 0.0000000000000000000, 0.0000000000000000000, 1.000000000000000000 ) ) ;
#66 = DIRECTION ( 'NONE',  ( 1.000000000000000000, 0.0000000000000000000, -0.0000000000000000000 ) ) ;
#67 = PLANE ( 'NONE',  #112 ) ;
#68 = CARTESIAN_POINT ( 'NONE',  ( 0.0000000000000000000, 0.0000000000000000000, 0.0000000000000000000 ) ) ;
#69 = DIRECTION ( 'NONE',  ( 0.0000000000000000000, -1.000000000000000000, -0.0000000000000000000 ) ) ;
#70 = DIRECTION ( 'NONE',  ( 0.0000000000000000000, 0.0000000000000000000, -1.000000000000000000 ) ) ;
#71 = PLANE ( 'NONE',  #110 ) ;
#72 = CARTESIAN_POINT ( 'NONE',  ( 0.0000000000000000000, 1.500000000000000200, 0.0000000000000000000 ) ) ;
#73 = DIRECTION ( 'NONE',  ( 0.0000000000000000000, -1.000000000000000000, -0.0000000000000000000 ) ) ;
#74 = DIRECTION ( 'NONE',  ( 0.0000000000000000000, 0.0000000000000000000, -1.000000000000000000 ) ) ;
#75 =( LENGTH_UNIT ( ) NAMED_UNIT ( * ) SI_UNIT ( $, .METRE. ) );
#76 =( CONVERSION_BASED_UNIT ( 'INCH', #111 ) LENGTH_UNIT ( ) NAMED_UNIT ( #96 ) );
#77 =( NAMED_UNIT ( * ) PLANE_ANGLE_UNIT ( ) SI_UNIT ( $, .RADIAN. ) );
#78 =( NAMED_UNIT ( * ) SI_UNIT ( $, .STERADIAN. ) SOLID_ANGLE_UNIT ( ) );
#79 = APPLICATION_PROTOCOL_DEFINITION ( 'draft international standard', 'automotive_design', 1998, #192 ) ;
#80 = FILL_AREA_STYLE_COLOUR ( '', #107 ) ;
#81 = FILL_AREA_STYLE ('',( #80 ) ) ;
#82 = SURFACE_STYLE_FILL_AREA ( #81 ) ;
#83 = SURFACE_SIDE_STYLE ('',( #82 ) ) ;
#84 = SURFACE_STYLE_USAGE ( .BOTH. , #83 ) ;
#85 = PRESENTATION_STYLE_ASSIGNMENT (( #84 ) ) ;
#86 =( LENGTH_UNIT ( ) NAMED_UNIT ( * ) SI_UNIT ( $, .METRE. ) );
#87 =( CONVERSION_BASED_UNIT ( 'INCH', #5 ) LENGTH_UNIT ( ) NAMED_UNIT ( #97 ) );
#88 =( NAMED_UNIT ( * ) PLANE_ANGLE_UNIT ( ) SI_UNIT ( $, .RADIAN. ) );
#89 =( NAMED_UNIT ( * ) SI_UNIT ( $, .STERADIAN. ) SOLID_ANGLE_UNIT ( ) );
#90 = CARTESIAN_POINT ( 'NONE',  ( 0.0000000000000000000, 0.0000000000000000000, 0.0000000000000000000 ) ) ;
#91 = DIRECTION ( 'NONE',  ( 0.0000000000000000000, 0.0000000000000000000, 1.000000000000000000 ) ) ;
#92 = DIRECTION ( 'NONE',  ( 1.000000000000000000, 0.0000000000000000000, 0.0000000000000000000 ) ) ;
#93 = SHAPE_DEFINITION_REPRESENTATION ( #100, #194 ) ;
#94 = PRODUCT_CONTEXT ( 'NONE', #192, 'mechanical' ) ;
#95 = APPLICATION_PROTOCOL_DEFINITION ( 'draft international standard', 'automotive_design', 1998, #191 ) ;
#96 = DIMENSIONAL_EXPONENTS ( 1.000000000000000000, 0.0000000000000000000, 0.0000000000000000000, 0.0000000000000000000, 0.0000000000000000000, 0.0000000000000000000, 0.0000000000000000000 ) ;
#97 = DIMENSIONAL_EXPONENTS ( 1.000000000000000000, 0.0000000000000000000, 0.0000000000000000000, 0.0000000000000000000, 0.0000000000000000000, 0.0000000000000000000, 0.0000000000000000000 ) ;
#98 = PRODUCT ( 'C1500L', 'C1500L', '', ( #94 ) ) ;
#99 = DIMENSIONAL_EXPONENTS ( 1.000000000000000000, 0.0000000000000000000, 0.0000000000000000000, 0.0000000000000000000, 0.0000000000000000000, 0.0000000000000000000, 0.0000000000000000000 ) ;
#100 = PRODUCT_DEFINITION_SHAPE ( 'NONE', 'NONE',  #105 ) ;
#101 = PRODUCT_DEFINITION_CONTEXT ( 'detailed design', #191, 'design' ) ;
#102 = MANIFOLD_SOLID_BREP ( 'Boss-Extrude1', #183 ) ;
#103 = EDGE_CURVE ( 'NONE', #151, #155, #199, .T. ) ;
#104 = PRODUCT_RELATED_PRODUCT_CATEGORY ( 'part', '', ( #98 ) ) ;
#105 = PRODUCT_DEFINITION ( 'UNKNOWN', '', #165, #101 ) ;
#106 = EDGE_CURVE ( 'NONE', #154, #156, #201, .T. ) ;
#107 = COLOUR_RGB ( '',0.5686274509803921400, 0.5686274509803921400, 0.5882352941176470800 ) ;
#108 = COLOUR_RGB ( '',0.5686274509803921400, 0.5686274509803921400, 0.5882352941176470800 ) ;
#109 = VECTOR ( 'NONE', #55, 39.37007874015748100 ) ;
#110 = AXIS2_PLACEMENT_3D ( 'NONE', #72, #73, #74 ) ;
#111 = LENGTH_MEASURE_WITH_UNIT ( LENGTH_MEASURE( 0.02539999999999999900 ), #75 );
#112 = AXIS2_PLACEMENT_3D ( 'NONE', #68, #69, #70 ) ;
#113 = FACE_OUTER_BOUND ( 'NONE', #136, .T. ) ;
#114 = AXIS2_PLACEMENT_3D ( 'NONE', #64, #65, #66 ) ;
#115 = FACE_OUTER_BOUND ( 'NONE', #139, .T. ) ;
#116 = FACE_OUTER_BOUND ( 'NONE', #142, .T. ) ;
#117 = FACE_OUTER_BOUND ( 'NONE', #143, .T. ) ;
#118 = FACE_OUTER_BOUND ( 'NONE', #145, .T. ) ;
#119 = AXIS2_PLACEMENT_3D ( 'NONE', #60, #61, #62 ) ;
#120 = AXIS2_PLACEMENT_3D ( 'NONE', #50, #51, #52 ) ;
#121 = VECTOR ( 'NONE', #59, 39.37007874015748100 ) ;
#122 = ORIENTED_EDGE ( 'NONE', *, *, #170, .T. ) ;
#123 = ORIENTED_EDGE ( 'NONE', *, *, #169, .F. ) ;
#124 = ORIENTED_EDGE ( 'NONE', *, *, #106, .F. ) ;
#125 = ORIENTED_EDGE ( 'NONE', *, *, #168, .T. ) ;
#126 = ORIENTED_EDGE ( 'NONE', *, *, #166, .T. ) ;
#127 = ORIENTED_EDGE ( 'NONE', *, *, #168, .F. ) ;
#128 = ORIENTED_EDGE ( 'NONE', *, *, #177, .T. ) ;
#129 = ORIENTED_EDGE ( 'NONE', *, *, #172, .T. ) ;
#130 = ORIENTED_EDGE ( 'NONE', *, *, #169, .T. ) ;
#131 = ORIENTED_EDGE ( 'NONE', *, *, #173, .T. ) ;
#132 = ORIENTED_EDGE ( 'NONE', *, *, #176, .T. ) ;
#133 = ORIENTED_EDGE ( 'NONE', *, *, #166, .F. ) ;
#134 = ORIENTED_EDGE ( 'NONE', *, *, #170, .F. ) ;
#135 = ORIENTED_EDGE ( 'NONE', *, *, #103, .F. ) ;
#136 = EDGE_LOOP ( 'NONE', ( #130, #131, #132, #128 ) ) ;
#137 = ORIENTED_EDGE ( 'NONE', *, *, #176, .F. ) ;
#138 = ORIENTED_EDGE ( 'NONE', *, *, #171, .T. ) ;
#139 = EDGE_LOOP ( 'NONE', ( #134, #135, #141, #133 ) ) ;
#140 = ORIENTED_EDGE ( 'NONE', *, *, #106, .T. ) ;
#141 = ORIENTED_EDGE ( 'NONE', *, *, #171, .F. ) ;
#142 = EDGE_LOOP ( 'NONE', ( #138, #161, #137, #160 ) ) ;
#143 = EDGE_LOOP ( 'NONE', ( #126, #148, #149, #140 ) ) ;
#144 = EDGE_LOOP ( 'NONE', ( #122, #124, #123, #125 ) ) ;
#145 = EDGE_LOOP ( 'NONE', ( #158, #127, #159, #129 ) ) ;
#146 = FILL_AREA_STYLE ('',( #147 ) ) ;
#147 = FILL_AREA_STYLE_COLOUR ( '', #108 ) ;
#148 = ORIENTED_EDGE ( 'NONE', *, *, #167, .F. ) ;
#149 = ORIENTED_EDGE ( 'NONE', *, *, #173, .F. ) ;
#150 = VERTEX_POINT ( 'NONE', #202 ) ;
#151 = VERTEX_POINT ( 'NONE', #3 ) ;
#152 = VERTEX_POINT ( 'NONE', #1 ) ;
#153 = VERTEX_POINT ( 'NONE', #16 ) ;
#154 = VERTEX_POINT ( 'NONE', #17 ) ;
#155 = VERTEX_POINT ( 'NONE', #18 ) ;
#156 = VERTEX_POINT ( 'NONE', #19 ) ;
#157 = VERTEX_POINT ( 'NONE', #20 ) ;
#158 = ORIENTED_EDGE ( 'NONE', *, *, #103, .T. ) ;
#159 = ORIENTED_EDGE ( 'NONE', *, *, #177, .F. ) ;
#160 = ORIENTED_EDGE ( 'NONE', *, *, #167, .T. ) ;
#161 = ORIENTED_EDGE ( 'NONE', *, *, #172, .F. ) ;
#162 =( GEOMETRIC_REPRESENTATION_CONTEXT ( 3 ) GLOBAL_UNCERTAINTY_ASSIGNED_CONTEXT ( ( #195 ) ) GLOBAL_UNIT_ASSIGNED_CONTEXT ( ( #10, #9, #203 ) ) REPRESENTATION_CONTEXT ( 'NONE', 'WORKASPACE' ) );
#163 =( GEOMETRIC_REPRESENTATION_CONTEXT ( 3 ) GLOBAL_UNCERTAINTY_ASSIGNED_CONTEXT ( ( #193 ) ) GLOBAL_UNIT_ASSIGNED_CONTEXT ( ( #76, #77, #78 ) ) REPRESENTATION_CONTEXT ( 'NONE', 'WORKASPACE' ) );
#164 =( GEOMETRIC_REPRESENTATION_CONTEXT ( 3 ) GLOBAL_UNCERTAINTY_ASSIGNED_CONTEXT ( ( #196 ) ) GLOBAL_UNIT_ASSIGNED_CONTEXT ( ( #87, #88, #89 ) ) REPRESENTATION_CONTEXT ( 'NONE', 'WORKASPACE' ) );
#165 = PRODUCT_DEFINITION_FORMATION_WITH_SPECIFIED_SOURCE ( 'ANY', '', #98, .NOT_KNOWN. ) ;
#166 = EDGE_CURVE ( 'NONE', #156, #153, #21, .T. ) ;
#167 = EDGE_CURVE ( 'NONE', #150, #153, #25, .T. ) ;
#168 = EDGE_CURVE ( 'NONE', #157, #155, #28, .T. ) ;
#169 = EDGE_CURVE ( 'NONE', #157, #154, #31, .T. ) ;
#170 = EDGE_CURVE ( 'NONE', #155, #156, #34, .T. ) ;
#171 = EDGE_CURVE ( 'NONE', #153, #151, #37, .T. ) ;
#172 = EDGE_CURVE ( 'NONE', #152, #151, #40, .T. ) ;
#173 = EDGE_CURVE ( 'NONE', #154, #150, #43, .T. ) ;
#174 = ADVANCED_FACE ( 'NONE', ( #185 ), #24, .F. ) ;
#175 = ADVANCED_FACE ( 'NONE', ( #118 ), #49, .F. ) ;
#176 = EDGE_CURVE ( 'NONE', #150, #152, #53, .T. ) ;
#177 = EDGE_CURVE ( 'NONE', #152, #157, #57, .T. ) ;
#178 = ADVANCED_FACE ( 'NONE', ( #117 ), #56, .F. ) ;
#179 = ADVANCED_FACE ( 'NONE', ( #116 ), #63, .F. ) ;
#180 = ADVANCED_FACE ( 'NONE', ( #115 ), #67, .T. ) ;
#181 = ADVANCED_FACE ( 'NONE', ( #113 ), #71, .F. ) ;
#182 = MECHANICAL_DESIGN_GEOMETRIC_PRESENTATION_REPRESENTATION (  '', ( #188 ), #162 ) ;
#183 = CLOSED_SHELL ( 'NONE', ( #174, #178, #179, #175, #181, #180 ) ) ;
#184 = VECTOR ( 'NONE', #2, 39.37007874015748100 ) ;
#185 = FACE_OUTER_BOUND ( 'NONE', #144, .T. ) ;
#186 = VECTOR ( 'NONE', #197, 39.37007874015748100 ) ;
#187 = PRESENTATION_LAYER_ASSIGNMENT (  '', '', ( #188 ) ) ;
#188 = STYLED_ITEM ( 'NONE', ( #12 ), #102 ) ;
#189 = LENGTH_MEASURE_WITH_UNIT ( LENGTH_MEASURE( 0.02539999999999999900 ), #11 );
#190 = VECTOR ( 'NONE', #23, 39.37007874015748100 ) ;
#191 = APPLICATION_CONTEXT ( 'automotive_design' ) ;
#192 = APPLICATION_CONTEXT ( 'automotive_design' ) ;
#193 = UNCERTAINTY_MEASURE_WITH_UNIT (LENGTH_MEASURE( 1.000000000000000100E-005 ), #76, 'distance_accuracy_value', 'NONE');
#194 = ADVANCED_BREP_SHAPE_REPRESENTATION ( 'C1500L', ( #102, #4 ), #163 ) ;
#195 = UNCERTAINTY_MEASURE_WITH_UNIT (LENGTH_MEASURE( 1.000000000000000100E-005 ), #10, 'distance_accuracy_value', 'NONE');
#196 = UNCERTAINTY_MEASURE_WITH_UNIT (LENGTH_MEASURE( 1.000000000000000100E-005 ), #87, 'distance_accuracy_value', 'NONE');
#197 = DIRECTION ( 'NONE',  ( -0.0000000000000000000, -0.0000000000000000000, 1.000000000000000000 ) ) ;
#198 = CARTESIAN_POINT ( 'NONE',  ( 0.0000000000000000000, 0.0000000000000000000, 0.0000000000000000000 ) ) ;
#199 = LINE ( 'NONE', #198, #186 ) ;
#200 = CARTESIAN_POINT ( 'NONE',  ( 1.499999999999999800, 1.500000000000000200, -1.683889348827611000E-016 ) ) ;
#201 = LINE ( 'NONE', #200, #184 ) ;
#202 = CARTESIAN_POINT ( 'NONE',  ( 1.499999999999999800, 1.500000000000000200, -1.500000000000000400 ) ) ;
#203 =( NAMED_UNIT ( * ) SI_UNIT ( $, .STERADIAN. ) SOLID_ANGLE_UNIT ( ) );
#204 = VECTOR ( 'NONE', #30, 39.37007874015748100 ) ;
#205 = VECTOR ( 'NONE', #45, 39.37007874015748100 ) ;
#206 = VECTOR ( 'NONE', #27, 39.37007874015748100 ) ;
#207 = AXIS2_PLACEMENT_3D ( 'NONE', #46, #47, #48 ) ;
#208 = VECTOR ( 'NONE', #42, 39.37007874015748100 ) ;
#209 = VECTOR ( 'NONE', #39, 39.37007874015748100 ) ;
#210 = VECTOR ( 'NONE', #36, 39.37007874015748100 ) ;
#211 = VECTOR ( 'NONE', #33, 39.37007874015748100 ) ;
ENDSEC;
END-ISO-10303-21;
