ISO-10303-21;
HEADER;
FILE_DESCRIPTION (( 'STEP AP214' ),
    '1' );
FILE_NAME ('C188A2-AU.step',
    '2012-04-20T20:46:40',
    ( '' ),
    ( '' ),
    'SwSTEP 2.0',
    'SolidWorks 2012',
    '' );
FILE_SCHEMA (( 'AUTOMOTIVE_DESIGN' ));
ENDSEC;

DATA;
#1 = LINE ( 'NONE', #39, #169 ) ;
#2 = VERTEX_POINT ( 'NONE', #25 ) ;
#3 =( NAMED_UNIT ( * ) PLANE_ANGLE_UNIT ( ) SI_UNIT ( $, .RADIAN. ) );
#4 =( CONVERSION_BASED_UNIT ( 'INCH', #162 ) LENGTH_UNIT ( ) NAMED_UNIT ( #12 ) );
#5 =( LENGTH_UNIT ( ) NAMED_UNIT ( * ) SI_UNIT ( $, .METRE. ) );
#6 = PRESENTATION_STYLE_ASSIGNMENT (( #7 ) ) ;
#7 = SURFACE_STYLE_USAGE ( .BOTH. , #8 ) ;
#8 = SURFACE_SIDE_STYLE ('',( #9 ) ) ;
#9 = SURFACE_STYLE_FILL_AREA ( #23 ) ;
#10 = DIMENSIONAL_EXPONENTS ( 1.000000000000000000, 0.0000000000000000000, 0.0000000000000000000, 0.0000000000000000000, 0.0000000000000000000, 0.0000000000000000000, 0.0000000000000000000 ) ;
#11 = DIMENSIONAL_EXPONENTS ( 1.000000000000000000, 0.0000000000000000000, 0.0000000000000000000, 0.0000000000000000000, 0.0000000000000000000, 0.0000000000000000000, 0.0000000000000000000 ) ;
#12 = DIMENSIONAL_EXPONENTS ( 1.000000000000000000, 0.0000000000000000000, 0.0000000000000000000, 0.0000000000000000000, 0.0000000000000000000, 0.0000000000000000000, 0.0000000000000000000 ) ;
#13 = PRODUCT ( 'C188A2-AU', 'C188A2-AU', '', ( #116 ) ) ;
#14 = PRODUCT_DEFINITION_SHAPE ( 'NONE', 'NONE',  #154 ) ;
#15 = MANIFOLD_SOLID_BREP ( 'Boss-Extrude1', #166 ) ;
#16 = PRODUCT_DEFINITION_CONTEXT ( 'detailed design', #194, 'design' ) ;
#17 = UNCERTAINTY_MEASURE_WITH_UNIT (LENGTH_MEASURE( 1.000000000000000100E-005 ), #98, 'distance_accuracy_value', 'NONE');
#18 = ADVANCED_BREP_SHAPE_REPRESENTATION ( 'C188A2-AU', ( #15, #205 ), #119 ) ;
#19 = UNCERTAINTY_MEASURE_WITH_UNIT (LENGTH_MEASURE( 1.000000000000000100E-005 ), #109, 'distance_accuracy_value', 'NONE');
#20 = UNCERTAINTY_MEASURE_WITH_UNIT (LENGTH_MEASURE( 1.000000000000000100E-005 ), #4, 'distance_accuracy_value', 'NONE');
#21 = DIRECTION ( 'NONE',  ( -1.000000000000000000, -0.0000000000000000000, -0.0000000000000000000 ) ) ;
#22 = PLANE ( 'NONE',  #152 ) ;
#23 = FILL_AREA_STYLE ('',( #24 ) ) ;
#24 = FILL_AREA_STYLE_COLOUR ( '', #211 ) ;
#25 = CARTESIAN_POINT ( 'NONE',  ( 0.1874999999999999700, 0.0000000000000000000, 9.950255243072241900E-017 ) ) ;
#26 = ORIENTED_EDGE ( 'NONE', *, *, #128, .F. ) ;
#27 = ORIENTED_EDGE ( 'NONE', *, *, #123, .F. ) ;
#28 = ORIENTED_EDGE ( 'NONE', *, *, #209, .T. ) ;
#29 = ORIENTED_EDGE ( 'NONE', *, *, #161, .F. ) ;
#30 = ORIENTED_EDGE ( 'NONE', *, *, #128, .T. ) ;
#31 = ORIENTED_EDGE ( 'NONE', *, *, #122, .F. ) ;
#32 = ORIENTED_EDGE ( 'NONE', *, *, #125, .F. ) ;
#33 = ORIENTED_EDGE ( 'NONE', *, *, #121, .T. ) ;
#34 = ORIENTED_EDGE ( 'NONE', *, *, #210, .T. ) ;
#35 = VERTEX_POINT ( 'NONE', #198 ) ;
#36 = VERTEX_POINT ( 'NONE', #197 ) ;
#37 = VERTEX_POINT ( 'NONE', #196 ) ;
#38 = VERTEX_POINT ( 'NONE', #199 ) ;
#39 = CARTESIAN_POINT ( 'NONE',  ( 0.0000000000000000000, 0.1875000000000000300, -0.1874999999999999700 ) ) ;
#40 = DIRECTION ( 'NONE',  ( -0.0000000000000000000, -1.000000000000000000, -0.0000000000000000000 ) ) ;
#41 = LINE ( 'NONE', #42, #147 ) ;
#42 = CARTESIAN_POINT ( 'NONE',  ( 0.1874999999999999700, 0.1875000000000000300, -0.1874999999999999700 ) ) ;
#43 = DIRECTION ( 'NONE',  ( -0.0000000000000000000, -0.0000000000000000000, -1.000000000000000000 ) ) ;
#44 = LINE ( 'NONE', #45, #153 ) ;
#45 = CARTESIAN_POINT ( 'NONE',  ( 0.1874999999999999700, 0.0000000000000000000, -0.1874999999999999700 ) ) ;
#46 = DIRECTION ( 'NONE',  ( -0.0000000000000000000, -0.0000000000000000000, -1.000000000000000000 ) ) ;
#47 = LINE ( 'NONE', #48, #134 ) ;
#48 = CARTESIAN_POINT ( 'NONE',  ( 0.0000000000000000000, 0.1875000000000000300, -0.1874999999999999700 ) ) ;
#49 = DIRECTION ( 'NONE',  ( -1.000000000000000000, -0.0000000000000000000, -0.0000000000000000000 ) ) ;
#50 = LINE ( 'NONE', #51, #133 ) ;
#51 = CARTESIAN_POINT ( 'NONE',  ( 0.0000000000000000000, 0.1875000000000000300, 0.0000000000000000000 ) ) ;
#52 = DIRECTION ( 'NONE',  ( -0.0000000000000000000, -1.000000000000000000, -0.0000000000000000000 ) ) ;
#53 = CARTESIAN_POINT ( 'NONE',  ( 0.0000000000000000000, 0.1875000000000000300, -0.1874999999999999700 ) ) ;
#54 = DIRECTION ( 'NONE',  ( 0.0000000000000000000, 0.0000000000000000000, 1.000000000000000000 ) ) ;
#55 = DIRECTION ( 'NONE',  ( 1.000000000000000000, 0.0000000000000000000, -0.0000000000000000000 ) ) ;
#56 = LINE ( 'NONE', #57, #149 ) ;
#57 = CARTESIAN_POINT ( 'NONE',  ( 0.1874999999999999700, 0.1875000000000000300, -0.1874999999999999700 ) ) ;
#58 = DIRECTION ( 'NONE',  ( -0.0000000000000000000, -1.000000000000000000, -0.0000000000000000000 ) ) ;
#59 = PLANE ( 'NONE',  #141 ) ;
#60 = LINE ( 'NONE', #61, #136 ) ;
#61 = CARTESIAN_POINT ( 'NONE',  ( 0.1874999999999999700, 0.1875000000000000300, 9.950255243072241900E-017 ) ) ;
#62 = DIRECTION ( 'NONE',  ( 1.000000000000000000, -0.0000000000000000000, 5.306802796305196700E-016 ) ) ;
#63 = CARTESIAN_POINT ( 'NONE',  ( 0.0000000000000000000, 0.1875000000000000300, 0.0000000000000000000 ) ) ;
#64 = DIRECTION ( 'NONE',  ( 1.000000000000000000, -0.0000000000000000000, 0.0000000000000000000 ) ) ;
#65 = DIRECTION ( 'NONE',  ( 0.0000000000000000000, 0.0000000000000000000, -1.000000000000000000 ) ) ;
#66 = LINE ( 'NONE', #67, #140 ) ;
#67 = CARTESIAN_POINT ( 'NONE',  ( 0.1874999999999999700, 0.0000000000000000000, 9.950255243072241900E-017 ) ) ;
#68 = DIRECTION ( 'NONE',  ( 1.000000000000000000, -0.0000000000000000000, 5.306802796305196700E-016 ) ) ;
#69 = PLANE ( 'NONE',  #145 ) ;
#70 = CARTESIAN_POINT ( 'NONE',  ( 0.0000000000000000000, 0.1875000000000000300, 0.0000000000000000000 ) ) ;
#71 = DIRECTION ( 'NONE',  ( 0.0000000000000000000, -1.000000000000000000, 0.0000000000000000000 ) ) ;
#72 = DIRECTION ( 'NONE',  ( 0.0000000000000000000, 0.0000000000000000000, -1.000000000000000000 ) ) ;
#73 = PLANE ( 'NONE',  #132 ) ;
#74 = CARTESIAN_POINT ( 'NONE',  ( 0.0000000000000000000, 0.0000000000000000000, 0.0000000000000000000 ) ) ;
#75 = DIRECTION ( 'NONE',  ( 0.0000000000000000000, -1.000000000000000000, 0.0000000000000000000 ) ) ;
#76 = DIRECTION ( 'NONE',  ( 0.0000000000000000000, 0.0000000000000000000, -1.000000000000000000 ) ) ;
#77 = PLANE ( 'NONE',  #142 ) ;
#78 = CARTESIAN_POINT ( 'NONE',  ( 0.1874999999999999700, 0.1875000000000000300, 9.950255243072241900E-017 ) ) ;
#79 = DIRECTION ( 'NONE',  ( 5.306802796305196700E-016, 0.0000000000000000000, -1.000000000000000000 ) ) ;
#80 = DIRECTION ( 'NONE',  ( -1.000000000000000000, 0.0000000000000000000, -5.306802796305196700E-016 ) ) ;
#81 = PLANE ( 'NONE',  #139 ) ;
#82 = CARTESIAN_POINT ( 'NONE',  ( 0.1874999999999999700, 0.1875000000000000300, -0.1874999999999999700 ) ) ;
#83 = DIRECTION ( 'NONE',  ( -1.000000000000000000, 0.0000000000000000000, 0.0000000000000000000 ) ) ;
#84 = DIRECTION ( 'NONE',  ( 0.0000000000000000000, 0.0000000000000000000, 1.000000000000000000 ) ) ;
#85 = LINE ( 'NONE', #86, #135 ) ;
#86 = CARTESIAN_POINT ( 'NONE',  ( 0.0000000000000000000, 0.1875000000000000300, 0.0000000000000000000 ) ) ;
#87 = DIRECTION ( 'NONE',  ( -0.0000000000000000000, -0.0000000000000000000, 1.000000000000000000 ) ) ;
#88 = CARTESIAN_POINT ( 'NONE',  ( 0.0000000000000000000, 0.1875000000000000300, 0.0000000000000000000 ) ) ;
#89 = CARTESIAN_POINT ( 'NONE',  ( 0.1874999999999999700, 0.1875000000000000300, 9.950255243072241900E-017 ) ) ;
#90 = CARTESIAN_POINT ( 'NONE',  ( 0.0000000000000000000, 0.0000000000000000000, 0.0000000000000000000 ) ) ;
#91 = LINE ( 'NONE', #92, #148 ) ;
#92 = CARTESIAN_POINT ( 'NONE',  ( 0.0000000000000000000, 0.0000000000000000000, 0.0000000000000000000 ) ) ;
#93 = DIRECTION ( 'NONE',  ( -0.0000000000000000000, -0.0000000000000000000, 1.000000000000000000 ) ) ;
#94 = LINE ( 'NONE', #95, #138 ) ;
#95 = CARTESIAN_POINT ( 'NONE',  ( 0.1874999999999999700, 0.1875000000000000300, 9.950255243072241900E-017 ) ) ;
#96 = DIRECTION ( 'NONE',  ( -0.0000000000000000000, -1.000000000000000000, -0.0000000000000000000 ) ) ;
#97 =( LENGTH_UNIT ( ) NAMED_UNIT ( * ) SI_UNIT ( $, .METRE. ) );
#98 =( CONVERSION_BASED_UNIT ( 'INCH', #137 ) LENGTH_UNIT ( ) NAMED_UNIT ( #11 ) );
#99 =( NAMED_UNIT ( * ) PLANE_ANGLE_UNIT ( ) SI_UNIT ( $, .RADIAN. ) );
#100 =( NAMED_UNIT ( * ) SI_UNIT ( $, .STERADIAN. ) SOLID_ANGLE_UNIT ( ) );
#101 = APPLICATION_PROTOCOL_DEFINITION ( 'draft international standard', 'automotive_design', 1998, #195 ) ;
#102 = FILL_AREA_STYLE_COLOUR ( '', #156 ) ;
#103 = FILL_AREA_STYLE ('',( #102 ) ) ;
#104 = SURFACE_STYLE_FILL_AREA ( #103 ) ;
#105 = SURFACE_SIDE_STYLE ('',( #104 ) ) ;
#106 = SURFACE_STYLE_USAGE ( .BOTH. , #105 ) ;
#107 = PRESENTATION_STYLE_ASSIGNMENT (( #106 ) ) ;
#108 =( LENGTH_UNIT ( ) NAMED_UNIT ( * ) SI_UNIT ( $, .METRE. ) );
#109 =( CONVERSION_BASED_UNIT ( 'INCH', #203 ) LENGTH_UNIT ( ) NAMED_UNIT ( #10 ) );
#110 =( NAMED_UNIT ( * ) PLANE_ANGLE_UNIT ( ) SI_UNIT ( $, .RADIAN. ) );
#111 =( NAMED_UNIT ( * ) SI_UNIT ( $, .STERADIAN. ) SOLID_ANGLE_UNIT ( ) );
#112 = CARTESIAN_POINT ( 'NONE',  ( 0.0000000000000000000, 0.0000000000000000000, 0.0000000000000000000 ) ) ;
#113 = DIRECTION ( 'NONE',  ( 0.0000000000000000000, 0.0000000000000000000, 1.000000000000000000 ) ) ;
#114 = DIRECTION ( 'NONE',  ( 1.000000000000000000, 0.0000000000000000000, 0.0000000000000000000 ) ) ;
#115 = SHAPE_DEFINITION_REPRESENTATION ( #14, #18 ) ;
#116 = PRODUCT_CONTEXT ( 'NONE', #195, 'mechanical' ) ;
#117 = APPLICATION_PROTOCOL_DEFINITION ( 'draft international standard', 'automotive_design', 1998, #194 ) ;
#118 =( GEOMETRIC_REPRESENTATION_CONTEXT ( 3 ) GLOBAL_UNCERTAINTY_ASSIGNED_CONTEXT ( ( #20 ) ) GLOBAL_UNIT_ASSIGNED_CONTEXT ( ( #4, #3, #200 ) ) REPRESENTATION_CONTEXT ( 'NONE', 'WORKASPACE' ) );
#119 =( GEOMETRIC_REPRESENTATION_CONTEXT ( 3 ) GLOBAL_UNCERTAINTY_ASSIGNED_CONTEXT ( ( #17 ) ) GLOBAL_UNIT_ASSIGNED_CONTEXT ( ( #98, #99, #100 ) ) REPRESENTATION_CONTEXT ( 'NONE', 'WORKASPACE' ) );
#120 =( GEOMETRIC_REPRESENTATION_CONTEXT ( 3 ) GLOBAL_UNCERTAINTY_ASSIGNED_CONTEXT ( ( #19 ) ) GLOBAL_UNIT_ASSIGNED_CONTEXT ( ( #109, #110, #111 ) ) REPRESENTATION_CONTEXT ( 'NONE', 'WORKASPACE' ) );
#121 = EDGE_CURVE ( 'NONE', #35, #37, #202, .T. ) ;
#122 = EDGE_CURVE ( 'NONE', #38, #37, #1, .T. ) ;
#123 = EDGE_CURVE ( 'NONE', #170, #36, #41, .T. ) ;
#124 = EDGE_CURVE ( 'NONE', #2, #35, #44, .T. ) ;
#125 = EDGE_CURVE ( 'NONE', #36, #38, #47, .T. ) ;
#126 = EDGE_CURVE ( 'NONE', #178, #182, #50, .T. ) ;
#127 = ADVANCED_FACE ( 'NONE', ( #164 ), #22, .F. ) ;
#128 = EDGE_CURVE ( 'NONE', #36, #35, #56, .T. ) ;
#129 = EDGE_CURVE ( 'NONE', #178, #170, #60, .T. ) ;
#130 = ADVANCED_FACE ( 'NONE', ( #150 ), #59, .F. ) ;
#131 = EDGE_CURVE ( 'NONE', #182, #2, #66, .T. ) ;
#132 = AXIS2_PLACEMENT_3D ( 'NONE', #74, #75, #76 ) ;
#133 = VECTOR ( 'NONE', #52, 39.37007874015748100 ) ;
#134 = VECTOR ( 'NONE', #49, 39.37007874015748100 ) ;
#135 = VECTOR ( 'NONE', #87, 39.37007874015748100 ) ;
#136 = VECTOR ( 'NONE', #62, 39.37007874015748100 ) ;
#137 = LENGTH_MEASURE_WITH_UNIT ( LENGTH_MEASURE( 0.02539999999999999900 ), #97 );
#138 = VECTOR ( 'NONE', #96, 39.37007874015748100 ) ;
#139 = AXIS2_PLACEMENT_3D ( 'NONE', #82, #83, #84 ) ;
#140 = VECTOR ( 'NONE', #68, 39.37007874015748100 ) ;
#141 = AXIS2_PLACEMENT_3D ( 'NONE', #63, #64, #65 ) ;
#142 = AXIS2_PLACEMENT_3D ( 'NONE', #78, #79, #80 ) ;
#143 = FACE_OUTER_BOUND ( 'NONE', #172, .T. ) ;
#144 = FACE_OUTER_BOUND ( 'NONE', #193, .T. ) ;
#145 = AXIS2_PLACEMENT_3D ( 'NONE', #70, #71, #72 ) ;
#146 = FACE_OUTER_BOUND ( 'NONE', #180, .T. ) ;
#147 = VECTOR ( 'NONE', #43, 39.37007874015748100 ) ;
#148 = VECTOR ( 'NONE', #93, 39.37007874015748100 ) ;
#149 = VECTOR ( 'NONE', #58, 39.37007874015748100 ) ;
#150 = FACE_OUTER_BOUND ( 'NONE', #189, .T. ) ;
#151 = FACE_OUTER_BOUND ( 'NONE', #174, .T. ) ;
#152 = AXIS2_PLACEMENT_3D ( 'NONE', #53, #54, #55 ) ;
#153 = VECTOR ( 'NONE', #46, 39.37007874015748100 ) ;
#154 = PRODUCT_DEFINITION ( 'UNKNOWN', '', #204, #16 ) ;
#155 = PRODUCT_RELATED_PRODUCT_CATEGORY ( 'part', '', ( #13 ) ) ;
#156 = COLOUR_RGB ( '',0.9686274509803921600, 0.8784313725490196000, 0.5999999999999999800 ) ;
#157 = ADVANCED_FACE ( 'NONE', ( #143 ), #69, .F. ) ;
#158 = ADVANCED_FACE ( 'NONE', ( #144 ), #73, .T. ) ;
#159 = ADVANCED_FACE ( 'NONE', ( #151 ), #77, .F. ) ;
#160 = ADVANCED_FACE ( 'NONE', ( #146 ), #81, .F. ) ;
#161 = EDGE_CURVE ( 'NONE', #38, #178, #85, .T. ) ;
#162 = LENGTH_MEASURE_WITH_UNIT ( LENGTH_MEASURE( 0.02539999999999999900 ), #5 );
#163 = VECTOR ( 'NONE', #21, 39.37007874015748100 ) ;
#164 = FACE_OUTER_BOUND ( 'NONE', #179, .T. ) ;
#165 = STYLED_ITEM ( 'NONE', ( #6 ), #15 ) ;
#166 = CLOSED_SHELL ( 'NONE', ( #159, #160, #127, #130, #157, #158 ) ) ;
#167 = MECHANICAL_DESIGN_GEOMETRIC_PRESENTATION_REPRESENTATION (  '', ( #165 ), #118 ) ;
#168 = PRESENTATION_LAYER_ASSIGNMENT (  '', '', ( #165 ) ) ;
#169 = VECTOR ( 'NONE', #40, 39.37007874015748100 ) ;
#170 = VERTEX_POINT ( 'NONE', #89 ) ;
#171 = ORIENTED_EDGE ( 'NONE', *, *, #161, .T. ) ;
#172 = EDGE_LOOP ( 'NONE', ( #191, #177, #176, #171 ) ) ;
#173 = ORIENTED_EDGE ( 'NONE', *, *, #126, .T. ) ;
#174 = EDGE_LOOP ( 'NONE', ( #192, #186, #188, #173 ) ) ;
#175 = ORIENTED_EDGE ( 'NONE', *, *, #121, .F. ) ;
#176 = ORIENTED_EDGE ( 'NONE', *, *, #125, .T. ) ;
#177 = ORIENTED_EDGE ( 'NONE', *, *, #123, .T. ) ;
#178 = VERTEX_POINT ( 'NONE', #88 ) ;
#179 = EDGE_LOOP ( 'NONE', ( #33, #31, #32, #30 ) ) ;
#180 = EDGE_LOOP ( 'NONE', ( #181, #26, #27, #34 ) ) ;
#181 = ORIENTED_EDGE ( 'NONE', *, *, #124, .T. ) ;
#182 = VERTEX_POINT ( 'NONE', #90 ) ;
#183 = ORIENTED_EDGE ( 'NONE', *, *, #124, .F. ) ;
#184 = ORIENTED_EDGE ( 'NONE', *, *, #209, .F. ) ;
#185 = ORIENTED_EDGE ( 'NONE', *, *, #131, .F. ) ;
#186 = ORIENTED_EDGE ( 'NONE', *, *, #210, .F. ) ;
#187 = ORIENTED_EDGE ( 'NONE', *, *, #122, .T. ) ;
#188 = ORIENTED_EDGE ( 'NONE', *, *, #129, .F. ) ;
#189 = EDGE_LOOP ( 'NONE', ( #28, #190, #29, #187 ) ) ;
#190 = ORIENTED_EDGE ( 'NONE', *, *, #126, .F. ) ;
#191 = ORIENTED_EDGE ( 'NONE', *, *, #129, .T. ) ;
#192 = ORIENTED_EDGE ( 'NONE', *, *, #131, .T. ) ;
#193 = EDGE_LOOP ( 'NONE', ( #185, #184, #175, #183 ) ) ;
#194 = APPLICATION_CONTEXT ( 'automotive_design' ) ;
#195 = APPLICATION_CONTEXT ( 'automotive_design' ) ;
#196 = CARTESIAN_POINT ( 'NONE',  ( 0.0000000000000000000, 0.0000000000000000000, -0.1874999999999999700 ) ) ;
#197 = CARTESIAN_POINT ( 'NONE',  ( 0.1874999999999999700, 0.1875000000000000300, -0.1874999999999999700 ) ) ;
#198 = CARTESIAN_POINT ( 'NONE',  ( 0.1874999999999999700, 0.0000000000000000000, -0.1874999999999999700 ) ) ;
#199 = CARTESIAN_POINT ( 'NONE',  ( 0.0000000000000000000, 0.1875000000000000300, -0.1874999999999999700 ) ) ;
#200 =( NAMED_UNIT ( * ) SI_UNIT ( $, .STERADIAN. ) SOLID_ANGLE_UNIT ( ) );
#201 = CARTESIAN_POINT ( 'NONE',  ( 0.0000000000000000000, 0.0000000000000000000, -0.1874999999999999700 ) ) ;
#202 = LINE ( 'NONE', #201, #163 ) ;
#203 = LENGTH_MEASURE_WITH_UNIT ( LENGTH_MEASURE( 0.02539999999999999900 ), #108 );
#204 = PRODUCT_DEFINITION_FORMATION_WITH_SPECIFIED_SOURCE ( 'ANY', '', #13, .NOT_KNOWN. ) ;
#205 = AXIS2_PLACEMENT_3D ( 'NONE', #112, #113, #114 ) ;
#206 = STYLED_ITEM ( 'NONE', ( #107 ), #18 ) ;
#207 = PRESENTATION_LAYER_ASSIGNMENT (  '', '', ( #206 ) ) ;
#208 = MECHANICAL_DESIGN_GEOMETRIC_PRESENTATION_REPRESENTATION (  '', ( #206 ), #120 ) ;
#209 = EDGE_CURVE ( 'NONE', #37, #182, #91, .T. ) ;
#210 = EDGE_CURVE ( 'NONE', #170, #2, #94, .T. ) ;
#211 = COLOUR_RGB ( '',0.9686274509803921600, 0.8784313725490196000, 0.5999999999999999800 ) ;
ENDSEC;
END-ISO-10303-21;
