ISO-10303-21;
HEADER;
FILE_DESCRIPTION (( 'STEP AP203' ),
    '1' );
FILE_NAME ('C188A2.step',
    '2012-03-28T23:03:55',
    ( '' ),
    ( '' ),
    'SwSTEP 2.0',
    'SolidWorks 2012',
    '' );
FILE_SCHEMA (( 'CONFIG_CONTROL_DESIGN' ));
ENDSEC;

DATA;
#1 = AXIS2_PLACEMENT_3D ( 'NONE', #177, #176, #175 ) ;
#2 = FACE_OUTER_BOUND ( 'NONE', #215, .T. ) ;
#3 = AXIS2_PLACEMENT_3D ( 'NONE', #173, #172, #171 ) ;
#4 = FACE_OUTER_BOUND ( 'NONE', #214, .T. ) ;
#5 = AXIS2_PLACEMENT_3D ( 'NONE', #169, #168, #167 ) ;
#6 = LENGTH_MEASURE_WITH_UNIT ( LENGTH_MEASURE( 0.02539999999999999900 ), #83 );
#7 = VECTOR ( 'NONE', #164, 39.37007874015748100 ) ;
#8 = VECTOR ( 'NONE', #160, 39.37007874015748100 ) ;
#9 = VECTOR ( 'NONE', #157, 39.37007874015748100 ) ;
#10 = VECTOR ( 'NONE', #154, 39.37007874015748100 ) ;
#11 = VECTOR ( 'NONE', #151, 39.37007874015748100 ) ;
#12 = VECTOR ( 'NONE', #148, 39.37007874015748100 ) ;
#13 = VECTOR ( 'NONE', #145, 39.37007874015748100 ) ;
#14 = VECTOR ( 'NONE', #142, 39.37007874015748100 ) ;
#15 = AXIS2_PLACEMENT_3D ( 'NONE', #73, #72, #71 ) ;
#16 = ORGANIZATION ( 'UNSPECIFIED', 'UNSPECIFIED', '' ) ;
#17 = APPROVAL_PERSON_ORGANIZATION ( #62, #104, #60 ) ;
#18 = COORDINATED_UNIVERSAL_TIME_OFFSET ( 8, 0, .BEHIND. ) ;
#19 = CALENDAR_DATE ( 2012, 28, 3 ) ;
#20 = CC_DESIGN_APPROVAL ( #104, ( #105 ) ) ;
#21 = COORDINATED_UNIVERSAL_TIME_OFFSET ( 8, 0, .BEHIND. ) ;
#22 = CALENDAR_DATE ( 2012, 28, 3 ) ;
#23 = PRODUCT_DEFINITION_FORMATION_WITH_SPECIFIED_SOURCE ( 'ANY', '', #85, .NOT_KNOWN. ) ;
#24 = APPROVAL_PERSON_ORGANIZATION ( #54, #99, #52 ) ;
#25 = COORDINATED_UNIVERSAL_TIME_OFFSET ( 8, 0, .BEHIND. ) ;
#26 = CALENDAR_DATE ( 2012, 28, 3 ) ;
#27 = CC_DESIGN_APPROVAL ( #99, ( #23 ) ) ;
#28 = SECURITY_CLASSIFICATION ( '', '', #47 ) ;
#29 = COORDINATED_UNIVERSAL_TIME_OFFSET ( 8, 0, .BEHIND. ) ;
#30 = CALENDAR_DATE ( 2012, 28, 3 ) ;
#31 = APPROVAL_PERSON_ORGANIZATION ( #40, #91, #70 ) ;
#32 = COORDINATED_UNIVERSAL_TIME_OFFSET ( 8, 0, .BEHIND. ) ;
#33 = CALENDAR_DATE ( 2012, 28, 3 ) ;
#34 = CC_DESIGN_APPROVAL ( #91, ( #28 ) ) ;
#35 = CC_DESIGN_SECURITY_CLASSIFICATION ( #28, ( #23 ) ) ;
#36 = PERSON ( 'UNSPECIFIED', 'UNSPECIFIED', 'UNSPECIFIED', ('UNSPECIFIED'), ('UNSPECIFIED'), ('UNSPECIFIED') ) ;
#37 = UNCERTAINTY_MEASURE_WITH_UNIT (LENGTH_MEASURE( 1.000000000000000100E-005 ), #82, 'distance_accuracy_value', 'NONE');
#38 = ADVANCED_BREP_SHAPE_REPRESENTATION ( 'C188A2', ( #87, #15 ), #39 ) ;
#39 =( GEOMETRIC_REPRESENTATION_CONTEXT ( 3 ) GLOBAL_UNCERTAINTY_ASSIGNED_CONTEXT ( ( #37 ) ) GLOBAL_UNIT_ASSIGNED_CONTEXT ( ( #82, #81, #77 ) ) REPRESENTATION_CONTEXT ( 'NONE', 'WORKASPACE' ) );
#40 = PERSON_AND_ORGANIZATION ( #36, #16 ) ;
#41 = DATE_TIME_ROLE ( 'classification_date' ) ;
#42 = DATE_AND_TIME ( #30, #93 ) ;
#43 = APPROVAL_DATE_TIME ( #44, #91 ) ;
#44 = DATE_AND_TIME ( #33, #90 ) ;
#45 = PERSON_AND_ORGANIZATION_ROLE ( 'classification_officer' ) ;
#46 = PERSON_AND_ORGANIZATION ( #36, #16 ) ;
#47 = SECURITY_CLASSIFICATION_LEVEL ( 'unclassified' ) ;
#48 = PERSON_AND_ORGANIZATION_ROLE ( 'design_supplier' ) ;
#49 = PERSON_AND_ORGANIZATION_ROLE ( 'creator' ) ;
#50 = APPROVAL_DATE_TIME ( #51, #99 ) ;
#51 = DATE_AND_TIME ( #26, #98 ) ;
#52 = APPROVAL_ROLE ( '' ) ;
#53 = APPROVAL_STATUS ( 'not_yet_approved' ) ;
#54 = PERSON_AND_ORGANIZATION ( #36, #16 ) ;
#55 = DATE_TIME_ROLE ( 'creation_date' ) ;
#56 = DATE_AND_TIME ( #22, #101 ) ;
#57 = PERSON_AND_ORGANIZATION_ROLE ( 'creator' ) ;
#58 = APPROVAL_DATE_TIME ( #59, #104 ) ;
#59 = DATE_AND_TIME ( #19, #103 ) ;
#60 = APPROVAL_ROLE ( '' ) ;
#61 = APPROVAL_STATUS ( 'not_yet_approved' ) ;
#62 = PERSON_AND_ORGANIZATION ( #36, #16 ) ;
#63 = APPLICATION_PROTOCOL_DEFINITION ( 'international standard', 'config_control_design', 1994, #126 ) ;
#64 = PERSON_AND_ORGANIZATION_ROLE ( 'design_owner' ) ;
#65 = PERSON_AND_ORGANIZATION ( #36, #16 ) ;
#66 = MECHANICAL_CONTEXT ( 'NONE', #125, 'mechanical' ) ;
#67 = SHAPE_DEFINITION_REPRESENTATION ( #89, #38 ) ;
#68 = APPROVAL_STATUS ( 'not_yet_approved' ) ;
#69 = PERSON_AND_ORGANIZATION ( #36, #16 ) ;
#70 = APPROVAL_ROLE ( '' ) ;
#71 = DIRECTION ( 'NONE',  ( 1.000000000000000000, 0.0000000000000000000, 0.0000000000000000000 ) ) ;
#72 = DIRECTION ( 'NONE',  ( 0.0000000000000000000, 0.0000000000000000000, 1.000000000000000000 ) ) ;
#73 = CARTESIAN_POINT ( 'NONE',  ( 0.0000000000000000000, 0.0000000000000000000, 0.0000000000000000000 ) ) ;
#74 = APPLICATION_PROTOCOL_DEFINITION ( 'international standard', 'config_control_design', 1994, #125 ) ;
#75 = PERSON_AND_ORGANIZATION ( #36, #16 ) ;
#76 = PERSON_AND_ORGANIZATION ( #36, #16 ) ;
#77 =( NAMED_UNIT ( * ) SI_UNIT ( $, .STERADIAN. ) SOLID_ANGLE_UNIT ( ) );
#78 = CARTESIAN_POINT ( 'NONE',  ( 0.0000000000000000000, 0.1875000000000000300, 0.0000000000000000000 ) ) ;
#79 = CARTESIAN_POINT ( 'NONE',  ( 0.1875000000000001100, 0.1875000000000000300, -0.1874999999999998300 ) ) ;
#80 = CARTESIAN_POINT ( 'NONE',  ( 0.0000000000000000000, 0.0000000000000000000, -0.1874999999999998300 ) ) ;
#81 =( NAMED_UNIT ( * ) PLANE_ANGLE_UNIT ( ) SI_UNIT ( $, .RADIAN. ) );
#82 =( CONVERSION_BASED_UNIT ( 'INCH', #6 ) LENGTH_UNIT ( ) NAMED_UNIT ( #86 ) );
#83 =( LENGTH_UNIT ( ) NAMED_UNIT ( * ) SI_UNIT ( $, .METRE. ) );
#84 = CARTESIAN_POINT ( 'NONE',  ( 0.1875000000000001100, 0.0000000000000000000, -0.1874999999999998300 ) ) ;
#85 = PRODUCT ( 'C188A2', 'C188A2', '', ( #66 ) ) ;
#86 = DIMENSIONAL_EXPONENTS ( 1.000000000000000000, 0.0000000000000000000, 0.0000000000000000000, 0.0000000000000000000, 0.0000000000000000000, 0.0000000000000000000, 0.0000000000000000000 ) ;
#87 = MANIFOLD_SOLID_BREP ( 'Boss-Extrude1', #127 ) ;
#88 = DESIGN_CONTEXT ( 'detailed design', #126, 'design' ) ;
#89 = PRODUCT_DEFINITION_SHAPE ( 'NONE', 'NONE',  #105 ) ;
#90 = LOCAL_TIME ( 16, 3, 55.00000000000000000, #32 ) ;
#91 = APPROVAL ( #68, 'UNSPECIFIED' ) ;
#92 = CC_DESIGN_DATE_AND_TIME_ASSIGNMENT ( #42, #41, ( #28 ) ) ;
#93 = LOCAL_TIME ( 16, 3, 55.00000000000000000, #29 ) ;
#94 = CC_DESIGN_PERSON_AND_ORGANIZATION_ASSIGNMENT ( #46, #45, ( #28 ) ) ;
#95 = CC_DESIGN_PERSON_AND_ORGANIZATION_ASSIGNMENT ( #75, #48, ( #23 ) ) ;
#96 = EDGE_CURVE ( 'NONE', #223, #222, #202, .T. ) ;
#97 = CC_DESIGN_PERSON_AND_ORGANIZATION_ASSIGNMENT ( #76, #49, ( #23 ) ) ;
#98 = LOCAL_TIME ( 16, 3, 55.00000000000000000, #25 ) ;
#99 = APPROVAL ( #53, 'UNSPECIFIED' ) ;
#100 = CC_DESIGN_DATE_AND_TIME_ASSIGNMENT ( #56, #55, ( #105 ) ) ;
#101 = LOCAL_TIME ( 16, 3, 55.00000000000000000, #21 ) ;
#102 = CC_DESIGN_PERSON_AND_ORGANIZATION_ASSIGNMENT ( #69, #57, ( #105 ) ) ;
#103 = LOCAL_TIME ( 16, 3, 55.00000000000000000, #18 ) ;
#104 = APPROVAL ( #61, 'UNSPECIFIED' ) ;
#105 = PRODUCT_DEFINITION ( 'UNKNOWN', '', #23, #88 ) ;
#106 = EDGE_CURVE ( 'NONE', #223, #219, #198, .T. ) ;
#107 = CC_DESIGN_PERSON_AND_ORGANIZATION_ASSIGNMENT ( #65, #64, ( #85 ) ) ;
#108 = EDGE_CURVE ( 'NONE', #221, #223, #195, .T. ) ;
#109 = EDGE_CURVE ( 'NONE', #225, #222, #192, .T. ) ;
#110 = ADVANCED_FACE ( 'NONE', ( #131 ), #199, .F. ) ;
#111 = ADVANCED_FACE ( 'NONE', ( #137 ), #186, .F. ) ;
#112 = ADVANCED_FACE ( 'NONE', ( #130 ), #182, .F. ) ;
#113 = ADVANCED_FACE ( 'NONE', ( #129 ), #178, .F. ) ;
#114 = ADVANCED_FACE ( 'NONE', ( #4 ), #174, .F. ) ;
#115 = ADVANCED_FACE ( 'NONE', ( #2 ), #170, .T. ) ;
#116 = EDGE_CURVE ( 'NONE', #224, #221, #166, .T. ) ;
#117 = EDGE_CURVE ( 'NONE', #226, #225, #162, .T. ) ;
#118 = EDGE_CURVE ( 'NONE', #221, #225, #159, .T. ) ;
#119 = EDGE_CURVE ( 'NONE', #219, #224, #156, .T. ) ;
#120 = EDGE_CURVE ( 'NONE', #222, #220, #153, .T. ) ;
#121 = EDGE_CURVE ( 'NONE', #219, #220, #150, .T. ) ;
#122 = EDGE_CURVE ( 'NONE', #220, #226, #147, .T. ) ;
#123 = PRODUCT_RELATED_PRODUCT_CATEGORY ( 'detail', '', ( #85 ) ) ;
#124 = EDGE_CURVE ( 'NONE', #224, #226, #144, .T. ) ;
#125 = APPLICATION_CONTEXT ( 'configuration controlled 3d designs of mechanical parts and assemblies' ) ;
#126 = APPLICATION_CONTEXT ( 'configuration controlled 3d designs of mechanical parts and assemblies' ) ;
#127 = CLOSED_SHELL ( 'NONE', ( #110, #111, #112, #113, #114, #115 ) ) ;
#128 = AXIS2_PLACEMENT_3D ( 'NONE', #185, #184, #183 ) ;
#129 = FACE_OUTER_BOUND ( 'NONE', #213, .T. ) ;
#130 = FACE_OUTER_BOUND ( 'NONE', #217, .T. ) ;
#131 = FACE_OUTER_BOUND ( 'NONE', #218, .T. ) ;
#132 = VECTOR ( 'NONE', #193, 39.37007874015748100 ) ;
#133 = VECTOR ( 'NONE', #190, 39.37007874015748100 ) ;
#134 = AXIS2_PLACEMENT_3D ( 'NONE', #189, #188, #187 ) ;
#135 = AXIS2_PLACEMENT_3D ( 'NONE', #181, #180, #179 ) ;
#136 = VECTOR ( 'NONE', #200, 39.37007874015748100 ) ;
#137 = FACE_OUTER_BOUND ( 'NONE', #216, .T. ) ;
#138 = VECTOR ( 'NONE', #196, 39.37007874015748100 ) ;
#139 = CARTESIAN_POINT ( 'NONE',  ( 0.0000000000000000000, 0.0000000000000000000, 0.0000000000000000000 ) ) ;
#140 = CARTESIAN_POINT ( 'NONE',  ( 0.0000000000000000000, 0.1875000000000000300, -0.1874999999999998300 ) ) ;
#141 = CARTESIAN_POINT ( 'NONE',  ( 0.1875000000000001100, 0.0000000000000000000, 1.607348923880900500E-016 ) ) ;
#142 = DIRECTION ( 'NONE',  ( -0.0000000000000000000, -1.000000000000000000, -0.0000000000000000000 ) ) ;
#143 = CARTESIAN_POINT ( 'NONE',  ( 0.1875000000000001100, 0.1875000000000000300, -0.1874999999999998300 ) ) ;
#144 = LINE ( 'NONE', #143, #14 ) ;
#145 = DIRECTION ( 'NONE',  ( -0.0000000000000000000, -0.0000000000000000000, -1.000000000000000000 ) ) ;
#146 = CARTESIAN_POINT ( 'NONE',  ( 0.1875000000000001100, 0.0000000000000000000, -0.1874999999999998300 ) ) ;
#147 = LINE ( 'NONE', #146, #13 ) ;
#148 = DIRECTION ( 'NONE',  ( -0.0000000000000000000, -1.000000000000000000, -0.0000000000000000000 ) ) ;
#149 = CARTESIAN_POINT ( 'NONE',  ( 0.1875000000000001100, 0.1875000000000000300, 1.607348923880900500E-016 ) ) ;
#150 = LINE ( 'NONE', #149, #12 ) ;
#151 = DIRECTION ( 'NONE',  ( 1.000000000000000000, -0.0000000000000000000, 8.572527594031463300E-016 ) ) ;
#152 = CARTESIAN_POINT ( 'NONE',  ( 0.1875000000000001100, 0.0000000000000000000, 1.607348923880900500E-016 ) ) ;
#153 = LINE ( 'NONE', #152, #11 ) ;
#154 = DIRECTION ( 'NONE',  ( -0.0000000000000000000, -0.0000000000000000000, -1.000000000000000000 ) ) ;
#155 = CARTESIAN_POINT ( 'NONE',  ( 0.1875000000000001100, 0.1875000000000000300, -0.1874999999999998300 ) ) ;
#156 = LINE ( 'NONE', #155, #10 ) ;
#157 = DIRECTION ( 'NONE',  ( -0.0000000000000000000, -1.000000000000000000, -0.0000000000000000000 ) ) ;
#158 = CARTESIAN_POINT ( 'NONE',  ( 0.0000000000000000000, 0.1875000000000000300, -0.1874999999999998300 ) ) ;
#159 = LINE ( 'NONE', #158, #9 ) ;
#160 = DIRECTION ( 'NONE',  ( -1.000000000000000000, -0.0000000000000000000, -0.0000000000000000000 ) ) ;
#161 = CARTESIAN_POINT ( 'NONE',  ( 0.0000000000000000000, 0.0000000000000000000, -0.1874999999999998300 ) ) ;
#162 = LINE ( 'NONE', #161, #8 ) ;
#163 = CARTESIAN_POINT ( 'NONE',  ( 0.1875000000000001100, 0.1875000000000000300, 1.607348923880900500E-016 ) ) ;
#164 = DIRECTION ( 'NONE',  ( -1.000000000000000000, -0.0000000000000000000, -0.0000000000000000000 ) ) ;
#165 = CARTESIAN_POINT ( 'NONE',  ( 0.0000000000000000000, 0.1875000000000000300, -0.1874999999999998300 ) ) ;
#166 = LINE ( 'NONE', #165, #7 ) ;
#167 = DIRECTION ( 'NONE',  ( 0.0000000000000000000, 0.0000000000000000000, -1.000000000000000000 ) ) ;
#168 = DIRECTION ( 'NONE',  ( 0.0000000000000000000, -1.000000000000000000, 0.0000000000000000000 ) ) ;
#169 = CARTESIAN_POINT ( 'NONE',  ( 0.0000000000000000000, 0.0000000000000000000, 0.0000000000000000000 ) ) ;
#170 = PLANE ( 'NONE',  #5 ) ;
#171 = DIRECTION ( 'NONE',  ( 0.0000000000000000000, 0.0000000000000000000, -1.000000000000000000 ) ) ;
#172 = DIRECTION ( 'NONE',  ( 0.0000000000000000000, -1.000000000000000000, 0.0000000000000000000 ) ) ;
#173 = CARTESIAN_POINT ( 'NONE',  ( 0.0000000000000000000, 0.1875000000000000300, 0.0000000000000000000 ) ) ;
#174 = PLANE ( 'NONE',  #3 ) ;
#175 = DIRECTION ( 'NONE',  ( 0.0000000000000000000, 0.0000000000000000000, -1.000000000000000000 ) ) ;
#176 = DIRECTION ( 'NONE',  ( 1.000000000000000000, -0.0000000000000000000, 0.0000000000000000000 ) ) ;
#177 = CARTESIAN_POINT ( 'NONE',  ( 0.0000000000000000000, 0.1875000000000000300, 0.0000000000000000000 ) ) ;
#178 = PLANE ( 'NONE',  #1 ) ;
#179 = DIRECTION ( 'NONE',  ( 1.000000000000000000, 0.0000000000000000000, -0.0000000000000000000 ) ) ;
#180 = DIRECTION ( 'NONE',  ( 0.0000000000000000000, 0.0000000000000000000, 1.000000000000000000 ) ) ;
#181 = CARTESIAN_POINT ( 'NONE',  ( 0.0000000000000000000, 0.1875000000000000300, -0.1874999999999998300 ) ) ;
#182 = PLANE ( 'NONE',  #135 ) ;
#183 = DIRECTION ( 'NONE',  ( 0.0000000000000000000, 0.0000000000000000000, 1.000000000000000000 ) ) ;
#184 = DIRECTION ( 'NONE',  ( -1.000000000000000000, 0.0000000000000000000, 0.0000000000000000000 ) ) ;
#185 = CARTESIAN_POINT ( 'NONE',  ( 0.1875000000000001100, 0.1875000000000000300, -0.1874999999999998300 ) ) ;
#186 = PLANE ( 'NONE',  #128 ) ;
#187 = DIRECTION ( 'NONE',  ( -1.000000000000000000, 0.0000000000000000000, -8.572527594031465300E-016 ) ) ;
#188 = DIRECTION ( 'NONE',  ( 8.572527594031465300E-016, 0.0000000000000000000, -1.000000000000000000 ) ) ;
#189 = CARTESIAN_POINT ( 'NONE',  ( 0.1875000000000001100, 0.1875000000000000300, 1.607348923880900500E-016 ) ) ;
#190 = DIRECTION ( 'NONE',  ( -0.0000000000000000000, -0.0000000000000000000, 1.000000000000000000 ) ) ;
#191 = CARTESIAN_POINT ( 'NONE',  ( 0.0000000000000000000, 0.0000000000000000000, 0.0000000000000000000 ) ) ;
#192 = LINE ( 'NONE', #191, #133 ) ;
#193 = DIRECTION ( 'NONE',  ( -0.0000000000000000000, -0.0000000000000000000, 1.000000000000000000 ) ) ;
#194 = CARTESIAN_POINT ( 'NONE',  ( 0.0000000000000000000, 0.1875000000000000300, 0.0000000000000000000 ) ) ;
#195 = LINE ( 'NONE', #194, #132 ) ;
#196 = DIRECTION ( 'NONE',  ( 1.000000000000000000, -0.0000000000000000000, 8.572527594031463300E-016 ) ) ;
#197 = CARTESIAN_POINT ( 'NONE',  ( 0.1875000000000001100, 0.1875000000000000300, 1.607348923880900500E-016 ) ) ;
#198 = LINE ( 'NONE', #197, #138 ) ;
#199 = PLANE ( 'NONE',  #134 ) ;
#200 = DIRECTION ( 'NONE',  ( -0.0000000000000000000, -1.000000000000000000, -0.0000000000000000000 ) ) ;
#201 = CARTESIAN_POINT ( 'NONE',  ( 0.0000000000000000000, 0.1875000000000000300, 0.0000000000000000000 ) ) ;
#202 = LINE ( 'NONE', #201, #136 ) ;
#203 = ORIENTED_EDGE ( 'NONE', *, *, #109, .F. ) ;
#204 = ORIENTED_EDGE ( 'NONE', *, *, #120, .F. ) ;
#205 = ORIENTED_EDGE ( 'NONE', *, *, #122, .F. ) ;
#206 = ORIENTED_EDGE ( 'NONE', *, *, #116, .T. ) ;
#207 = ORIENTED_EDGE ( 'NONE', *, *, #119, .T. ) ;
#208 = ORIENTED_EDGE ( 'NONE', *, *, #106, .T. ) ;
#209 = ORIENTED_EDGE ( 'NONE', *, *, #118, .T. ) ;
#210 = ORIENTED_EDGE ( 'NONE', *, *, #108, .T. ) ;
#211 = ORIENTED_EDGE ( 'NONE', *, *, #96, .F. ) ;
#212 = ORIENTED_EDGE ( 'NONE', *, *, #109, .T. ) ;
#213 = EDGE_LOOP ( 'NONE', ( #212, #211, #227, #209 ) ) ;
#214 = EDGE_LOOP ( 'NONE', ( #208, #207, #206, #210 ) ) ;
#215 = EDGE_LOOP ( 'NONE', ( #204, #203, #240, #205 ) ) ;
#216 = EDGE_LOOP ( 'NONE', ( #236, #233, #234, #232 ) ) ;
#217 = EDGE_LOOP ( 'NONE', ( #231, #229, #230, #228 ) ) ;
#218 = EDGE_LOOP ( 'NONE', ( #235, #238, #239, #237 ) ) ;
#219 = VERTEX_POINT ( 'NONE', #163 ) ;
#220 = VERTEX_POINT ( 'NONE', #141 ) ;
#221 = VERTEX_POINT ( 'NONE', #140 ) ;
#222 = VERTEX_POINT ( 'NONE', #139 ) ;
#223 = VERTEX_POINT ( 'NONE', #78 ) ;
#224 = VERTEX_POINT ( 'NONE', #79 ) ;
#225 = VERTEX_POINT ( 'NONE', #80 ) ;
#226 = VERTEX_POINT ( 'NONE', #84 ) ;
#227 = ORIENTED_EDGE ( 'NONE', *, *, #108, .F. ) ;
#228 = ORIENTED_EDGE ( 'NONE', *, *, #124, .T. ) ;
#229 = ORIENTED_EDGE ( 'NONE', *, *, #118, .F. ) ;
#230 = ORIENTED_EDGE ( 'NONE', *, *, #116, .F. ) ;
#231 = ORIENTED_EDGE ( 'NONE', *, *, #117, .T. ) ;
#232 = ORIENTED_EDGE ( 'NONE', *, *, #121, .T. ) ;
#233 = ORIENTED_EDGE ( 'NONE', *, *, #124, .F. ) ;
#234 = ORIENTED_EDGE ( 'NONE', *, *, #119, .F. ) ;
#235 = ORIENTED_EDGE ( 'NONE', *, *, #120, .T. ) ;
#236 = ORIENTED_EDGE ( 'NONE', *, *, #122, .T. ) ;
#237 = ORIENTED_EDGE ( 'NONE', *, *, #96, .T. ) ;
#238 = ORIENTED_EDGE ( 'NONE', *, *, #121, .F. ) ;
#239 = ORIENTED_EDGE ( 'NONE', *, *, #106, .F. ) ;
#240 = ORIENTED_EDGE ( 'NONE', *, *, #117, .F. ) ;
ENDSEC;
END-ISO-10303-21;
