ISO-10303-21;
HEADER;
FILE_DESCRIPTION (( 'STEP AP214' ),
    '1' );
FILE_NAME ('C188A2.step',
    '2012-04-20T20:46:43',
    ( '' ),
    ( '' ),
    'SwSTEP 2.0',
    'SolidWorks 2012',
    '' );
FILE_SCHEMA (( 'AUTOMOTIVE_DESIGN' ));
ENDSEC;

DATA;
#1 = DIRECTION ( 'NONE',  ( -1.000000000000000000, -0.0000000000000000000, -0.0000000000000000000 ) ) ;
#2 = LINE ( 'NONE', #3, #103 ) ;
#3 = CARTESIAN_POINT ( 'NONE',  ( 0.0000000000000000000, 0.1875000000000000300, -0.1874999999999998300 ) ) ;
#4 = PRESENTATION_LAYER_ASSIGNMENT (  '', '', ( #6 ) ) ;
#5 = VECTOR ( 'NONE', #162, 39.37007874015748100 ) ;
#6 = STYLED_ITEM ( 'NONE', ( #179 ), #194 ) ;
#7 = VECTOR ( 'NONE', #165, 39.37007874015748100 ) ;
#8 = MECHANICAL_DESIGN_GEOMETRIC_PRESENTATION_REPRESENTATION (  '', ( #6 ), #83 ) ;
#9 = VECTOR ( 'NONE', #168, 39.37007874015748100 ) ;
#10 =( CONVERSION_BASED_UNIT ( 'INCH', #101 ) LENGTH_UNIT ( ) NAMED_UNIT ( #18 ) );
#11 =( LENGTH_UNIT ( ) NAMED_UNIT ( * ) SI_UNIT ( $, .METRE. ) );
#12 = PRESENTATION_STYLE_ASSIGNMENT (( #13 ) ) ;
#13 = SURFACE_STYLE_USAGE ( .BOTH. , #14 ) ;
#14 = SURFACE_SIDE_STYLE ('',( #15 ) ) ;
#15 = SURFACE_STYLE_FILL_AREA ( #16 ) ;
#16 = FILL_AREA_STYLE ('',( #17 ) ) ;
#17 = FILL_AREA_STYLE_COLOUR ( '', #27 ) ;
#18 = DIMENSIONAL_EXPONENTS ( 1.000000000000000000, 0.0000000000000000000, 0.0000000000000000000, 0.0000000000000000000, 0.0000000000000000000, 0.0000000000000000000, 0.0000000000000000000 ) ;
#19 = PRODUCT ( 'C188A2', 'C188A2', '', ( #188 ) ) ;
#20 = DIMENSIONAL_EXPONENTS ( 1.000000000000000000, 0.0000000000000000000, 0.0000000000000000000, 0.0000000000000000000, 0.0000000000000000000, 0.0000000000000000000, 0.0000000000000000000 ) ;
#21 = DIMENSIONAL_EXPONENTS ( 1.000000000000000000, 0.0000000000000000000, 0.0000000000000000000, 0.0000000000000000000, 0.0000000000000000000, 0.0000000000000000000, 0.0000000000000000000 ) ;
#22 = PRODUCT_DEFINITION_SHAPE ( 'NONE', 'NONE',  #88 ) ;
#23 = MANIFOLD_SOLID_BREP ( 'Boss-Extrude1', #105 ) ;
#24 = PRODUCT_DEFINITION_CONTEXT ( 'detailed design', #191, 'design' ) ;
#25 = EDGE_CURVE ( 'NONE', #57, #80, #196, .T. ) ;
#26 = EDGE_CURVE ( 'NONE', #79, #77, #2, .T. ) ;
#27 = COLOUR_RGB ( '',0.5686274509803921400, 0.5686274509803921400, 0.5882352941176470800 ) ;
#28 = EDGE_CURVE ( 'NONE', #77, #56, #108, .T. ) ;
#29 = EDGE_CURVE ( 'NONE', #80, #78, #111, .T. ) ;
#30 = PRODUCT_DEFINITION_FORMATION_WITH_SPECIFIED_SOURCE ( 'ANY', '', #19, .NOT_KNOWN. ) ;
#31 = AXIS2_PLACEMENT_3D ( 'NONE', #157, #158, #159 ) ;
#32 = LENGTH_MEASURE_WITH_UNIT ( LENGTH_MEASURE( 0.02539999999999999900 ), #169 );
#33 = AXIS2_PLACEMENT_3D ( 'NONE', #153, #154, #155 ) ;
#34 = FACE_OUTER_BOUND ( 'NONE', #63, .T. ) ;
#35 = FACE_OUTER_BOUND ( 'NONE', #64, .T. ) ;
#36 = AXIS2_PLACEMENT_3D ( 'NONE', #149, #150, #151 ) ;
#37 = VECTOR ( 'NONE', #147, 39.37007874015748100 ) ;
#38 = AXIS2_PLACEMENT_3D ( 'NONE', #142, #143, #144 ) ;
#39 = FACE_OUTER_BOUND ( 'NONE', #61, .T. ) ;
#40 = VECTOR ( 'NONE', #133, 39.37007874015748100 ) ;
#41 = AXIS2_PLACEMENT_3D ( 'NONE', #134, #135, #136 ) ;
#42 = FACE_OUTER_BOUND ( 'NONE', #62, .T. ) ;
#43 = EDGE_LOOP ( 'NONE', ( #71, #70, #69, #73 ) ) ;
#44 = ORIENTED_EDGE ( 'NONE', *, *, #87, .T. ) ;
#45 = ORIENTED_EDGE ( 'NONE', *, *, #86, .F. ) ;
#46 = ORIENTED_EDGE ( 'NONE', *, *, #89, .F. ) ;
#47 = ORIENTED_EDGE ( 'NONE', *, *, #98, .T. ) ;
#48 = ORIENTED_EDGE ( 'NONE', *, *, #100, .T. ) ;
#49 = ORIENTED_EDGE ( 'NONE', *, *, #90, .F. ) ;
#50 = ORIENTED_EDGE ( 'NONE', *, *, #99, .F. ) ;
#51 = ORIENTED_EDGE ( 'NONE', *, *, #89, .T. ) ;
#52 = ORIENTED_EDGE ( 'NONE', *, *, #25, .T. ) ;
#53 = ORIENTED_EDGE ( 'NONE', *, *, #26, .F. ) ;
#54 = ORIENTED_EDGE ( 'NONE', *, *, #94, .F. ) ;
#55 = ORIENTED_EDGE ( 'NONE', *, *, #99, .T. ) ;
#56 = VERTEX_POINT ( 'NONE', #197 ) ;
#57 = VERTEX_POINT ( 'NONE', #114 ) ;
#58 = EDGE_LOOP ( 'NONE', ( #44, #46, #45, #47 ) ) ;
#59 = ORIENTED_EDGE ( 'NONE', *, *, #29, .T. ) ;
#60 = ORIENTED_EDGE ( 'NONE', *, *, #28, .F. ) ;
#61 = EDGE_LOOP ( 'NONE', ( #59, #74, #60, #72 ) ) ;
#62 = EDGE_LOOP ( 'NONE', ( #52, #54, #53, #55 ) ) ;
#63 = EDGE_LOOP ( 'NONE', ( #48, #50, #49, #51 ) ) ;
#64 = EDGE_LOOP ( 'NONE', ( #67, #66, #65, #68 ) ) ;
#65 = ORIENTED_EDGE ( 'NONE', *, *, #25, .F. ) ;
#66 = ORIENTED_EDGE ( 'NONE', *, *, #29, .F. ) ;
#67 = ORIENTED_EDGE ( 'NONE', *, *, #87, .F. ) ;
#68 = ORIENTED_EDGE ( 'NONE', *, *, #100, .F. ) ;
#69 = ORIENTED_EDGE ( 'NONE', *, *, #26, .T. ) ;
#70 = ORIENTED_EDGE ( 'NONE', *, *, #90, .T. ) ;
#71 = ORIENTED_EDGE ( 'NONE', *, *, #86, .T. ) ;
#72 = ORIENTED_EDGE ( 'NONE', *, *, #94, .T. ) ;
#73 = ORIENTED_EDGE ( 'NONE', *, *, #28, .T. ) ;
#74 = ORIENTED_EDGE ( 'NONE', *, *, #98, .F. ) ;
#75 = VERTEX_POINT ( 'NONE', #115 ) ;
#76 = VERTEX_POINT ( 'NONE', #116 ) ;
#77 = VERTEX_POINT ( 'NONE', #117 ) ;
#78 = VERTEX_POINT ( 'NONE', #118 ) ;
#79 = VERTEX_POINT ( 'NONE', #119 ) ;
#80 = VERTEX_POINT ( 'NONE', #120 ) ;
#81 =( GEOMETRIC_REPRESENTATION_CONTEXT ( 3 ) GLOBAL_UNCERTAINTY_ASSIGNED_CONTEXT ( ( #195 ) ) GLOBAL_UNIT_ASSIGNED_CONTEXT ( ( #10, #201, #200 ) ) REPRESENTATION_CONTEXT ( 'NONE', 'WORKASPACE' ) );
#82 =( GEOMETRIC_REPRESENTATION_CONTEXT ( 3 ) GLOBAL_UNCERTAINTY_ASSIGNED_CONTEXT ( ( #193 ) ) GLOBAL_UNIT_ASSIGNED_CONTEXT ( ( #170, #171, #172 ) ) REPRESENTATION_CONTEXT ( 'NONE', 'WORKASPACE' ) );
#83 =( GEOMETRIC_REPRESENTATION_CONTEXT ( 3 ) GLOBAL_UNCERTAINTY_ASSIGNED_CONTEXT ( ( #192 ) ) GLOBAL_UNIT_ASSIGNED_CONTEXT ( ( #181, #182, #183 ) ) REPRESENTATION_CONTEXT ( 'NONE', 'WORKASPACE' ) );
#84 = AXIS2_PLACEMENT_3D ( 'NONE', #184, #185, #186 ) ;
#85 = LENGTH_MEASURE_WITH_UNIT ( LENGTH_MEASURE( 0.02539999999999999900 ), #180 );
#86 = EDGE_CURVE ( 'NONE', #56, #75, #121, .T. ) ;
#87 = EDGE_CURVE ( 'NONE', #78, #76, #125, .T. ) ;
#88 = PRODUCT_DEFINITION ( 'UNKNOWN', '', #30, #24 ) ;
#89 = EDGE_CURVE ( 'NONE', #75, #76, #128, .T. ) ;
#90 = EDGE_CURVE ( 'NONE', #75, #79, #131, .T. ) ;
#91 = ADVANCED_FACE ( 'NONE', ( #207 ), #124, .F. ) ;
#92 = ADVANCED_FACE ( 'NONE', ( #39 ), #137, .F. ) ;
#93 = ADVANCED_FACE ( 'NONE', ( #206 ), #141, .F. ) ;
#94 = EDGE_CURVE ( 'NONE', #77, #80, #145, .T. ) ;
#95 = ADVANCED_FACE ( 'NONE', ( #42 ), #148, .F. ) ;
#96 = ADVANCED_FACE ( 'NONE', ( #35 ), #152, .T. ) ;
#97 = ADVANCED_FACE ( 'NONE', ( #34 ), #156, .F. ) ;
#98 = EDGE_CURVE ( 'NONE', #56, #78, #160, .T. ) ;
#99 = EDGE_CURVE ( 'NONE', #79, #57, #163, .T. ) ;
#100 = EDGE_CURVE ( 'NONE', #76, #57, #166, .T. ) ;
#101 = LENGTH_MEASURE_WITH_UNIT ( LENGTH_MEASURE( 0.02539999999999999900 ), #11 );
#102 = PRESENTATION_LAYER_ASSIGNMENT (  '', '', ( #106 ) ) ;
#103 = VECTOR ( 'NONE', #1, 39.37007874015748100 ) ;
#104 = MECHANICAL_DESIGN_GEOMETRIC_PRESENTATION_REPRESENTATION (  '', ( #106 ), #81 ) ;
#105 = CLOSED_SHELL ( 'NONE', ( #91, #97, #95, #92, #93, #96 ) ) ;
#106 = STYLED_ITEM ( 'NONE', ( #12 ), #23 ) ;
#107 = VECTOR ( 'NONE', #198, 39.37007874015748100 ) ;
#108 = LINE ( 'NONE', #109, #202 ) ;
#109 = CARTESIAN_POINT ( 'NONE',  ( 0.0000000000000000000, 0.1875000000000000300, 0.0000000000000000000 ) ) ;
#110 = DIRECTION ( 'NONE',  ( -0.0000000000000000000, -0.0000000000000000000, 1.000000000000000000 ) ) ;
#111 = LINE ( 'NONE', #112, #208 ) ;
#112 = CARTESIAN_POINT ( 'NONE',  ( 0.0000000000000000000, 0.0000000000000000000, 0.0000000000000000000 ) ) ;
#113 = DIRECTION ( 'NONE',  ( -0.0000000000000000000, -0.0000000000000000000, 1.000000000000000000 ) ) ;
#114 = CARTESIAN_POINT ( 'NONE',  ( 0.1875000000000001100, 0.0000000000000000000, -0.1874999999999998300 ) ) ;
#115 = CARTESIAN_POINT ( 'NONE',  ( 0.1875000000000001100, 0.1875000000000000300, 1.607348923880900500E-016 ) ) ;
#116 = CARTESIAN_POINT ( 'NONE',  ( 0.1875000000000001100, 0.0000000000000000000, 1.607348923880900500E-016 ) ) ;
#117 = CARTESIAN_POINT ( 'NONE',  ( 0.0000000000000000000, 0.1875000000000000300, -0.1874999999999998300 ) ) ;
#118 = CARTESIAN_POINT ( 'NONE',  ( 0.0000000000000000000, 0.0000000000000000000, 0.0000000000000000000 ) ) ;
#119 = CARTESIAN_POINT ( 'NONE',  ( 0.1875000000000001100, 0.1875000000000000300, -0.1874999999999998300 ) ) ;
#120 = CARTESIAN_POINT ( 'NONE',  ( 0.0000000000000000000, 0.0000000000000000000, -0.1874999999999998300 ) ) ;
#121 = LINE ( 'NONE', #122, #205 ) ;
#122 = CARTESIAN_POINT ( 'NONE',  ( 0.1875000000000001100, 0.1875000000000000300, 1.607348923880900500E-016 ) ) ;
#123 = DIRECTION ( 'NONE',  ( 1.000000000000000000, -0.0000000000000000000, 8.572527594031463300E-016 ) ) ;
#124 = PLANE ( 'NONE',  #41 ) ;
#125 = LINE ( 'NONE', #126, #204 ) ;
#126 = CARTESIAN_POINT ( 'NONE',  ( 0.1875000000000001100, 0.0000000000000000000, 1.607348923880900500E-016 ) ) ;
#127 = DIRECTION ( 'NONE',  ( 1.000000000000000000, -0.0000000000000000000, 8.572527594031463300E-016 ) ) ;
#128 = LINE ( 'NONE', #129, #203 ) ;
#129 = CARTESIAN_POINT ( 'NONE',  ( 0.1875000000000001100, 0.1875000000000000300, 1.607348923880900500E-016 ) ) ;
#130 = DIRECTION ( 'NONE',  ( -0.0000000000000000000, -1.000000000000000000, -0.0000000000000000000 ) ) ;
#131 = LINE ( 'NONE', #132, #40 ) ;
#132 = CARTESIAN_POINT ( 'NONE',  ( 0.1875000000000001100, 0.1875000000000000300, -0.1874999999999998300 ) ) ;
#133 = DIRECTION ( 'NONE',  ( -0.0000000000000000000, -0.0000000000000000000, -1.000000000000000000 ) ) ;
#134 = CARTESIAN_POINT ( 'NONE',  ( 0.1875000000000001100, 0.1875000000000000300, 1.607348923880900500E-016 ) ) ;
#135 = DIRECTION ( 'NONE',  ( 8.572527594031465300E-016, 0.0000000000000000000, -1.000000000000000000 ) ) ;
#136 = DIRECTION ( 'NONE',  ( -1.000000000000000000, 0.0000000000000000000, -8.572527594031465300E-016 ) ) ;
#137 = PLANE ( 'NONE',  #209 ) ;
#138 = CARTESIAN_POINT ( 'NONE',  ( 0.0000000000000000000, 0.1875000000000000300, 0.0000000000000000000 ) ) ;
#139 = DIRECTION ( 'NONE',  ( 1.000000000000000000, -0.0000000000000000000, 0.0000000000000000000 ) ) ;
#140 = DIRECTION ( 'NONE',  ( 0.0000000000000000000, 0.0000000000000000000, -1.000000000000000000 ) ) ;
#141 = PLANE ( 'NONE',  #38 ) ;
#142 = CARTESIAN_POINT ( 'NONE',  ( 0.0000000000000000000, 0.1875000000000000300, 0.0000000000000000000 ) ) ;
#143 = DIRECTION ( 'NONE',  ( 0.0000000000000000000, -1.000000000000000000, 0.0000000000000000000 ) ) ;
#144 = DIRECTION ( 'NONE',  ( 0.0000000000000000000, 0.0000000000000000000, -1.000000000000000000 ) ) ;
#145 = LINE ( 'NONE', #146, #37 ) ;
#146 = CARTESIAN_POINT ( 'NONE',  ( 0.0000000000000000000, 0.1875000000000000300, -0.1874999999999998300 ) ) ;
#147 = DIRECTION ( 'NONE',  ( -0.0000000000000000000, -1.000000000000000000, -0.0000000000000000000 ) ) ;
#148 = PLANE ( 'NONE',  #36 ) ;
#149 = CARTESIAN_POINT ( 'NONE',  ( 0.0000000000000000000, 0.1875000000000000300, -0.1874999999999998300 ) ) ;
#150 = DIRECTION ( 'NONE',  ( 0.0000000000000000000, 0.0000000000000000000, 1.000000000000000000 ) ) ;
#151 = DIRECTION ( 'NONE',  ( 1.000000000000000000, 0.0000000000000000000, -0.0000000000000000000 ) ) ;
#152 = PLANE ( 'NONE',  #33 ) ;
#153 = CARTESIAN_POINT ( 'NONE',  ( 0.0000000000000000000, 0.0000000000000000000, 0.0000000000000000000 ) ) ;
#154 = DIRECTION ( 'NONE',  ( 0.0000000000000000000, -1.000000000000000000, 0.0000000000000000000 ) ) ;
#155 = DIRECTION ( 'NONE',  ( 0.0000000000000000000, 0.0000000000000000000, -1.000000000000000000 ) ) ;
#156 = PLANE ( 'NONE',  #31 ) ;
#157 = CARTESIAN_POINT ( 'NONE',  ( 0.1875000000000001100, 0.1875000000000000300, -0.1874999999999998300 ) ) ;
#158 = DIRECTION ( 'NONE',  ( -1.000000000000000000, 0.0000000000000000000, 0.0000000000000000000 ) ) ;
#159 = DIRECTION ( 'NONE',  ( 0.0000000000000000000, 0.0000000000000000000, 1.000000000000000000 ) ) ;
#160 = LINE ( 'NONE', #161, #5 ) ;
#161 = CARTESIAN_POINT ( 'NONE',  ( 0.0000000000000000000, 0.1875000000000000300, 0.0000000000000000000 ) ) ;
#162 = DIRECTION ( 'NONE',  ( -0.0000000000000000000, -1.000000000000000000, -0.0000000000000000000 ) ) ;
#163 = LINE ( 'NONE', #164, #7 ) ;
#164 = CARTESIAN_POINT ( 'NONE',  ( 0.1875000000000001100, 0.1875000000000000300, -0.1874999999999998300 ) ) ;
#165 = DIRECTION ( 'NONE',  ( -0.0000000000000000000, -1.000000000000000000, -0.0000000000000000000 ) ) ;
#166 = LINE ( 'NONE', #167, #9 ) ;
#167 = CARTESIAN_POINT ( 'NONE',  ( 0.1875000000000001100, 0.0000000000000000000, -0.1874999999999998300 ) ) ;
#168 = DIRECTION ( 'NONE',  ( -0.0000000000000000000, -0.0000000000000000000, -1.000000000000000000 ) ) ;
#169 =( LENGTH_UNIT ( ) NAMED_UNIT ( * ) SI_UNIT ( $, .METRE. ) );
#170 =( CONVERSION_BASED_UNIT ( 'INCH', #32 ) LENGTH_UNIT ( ) NAMED_UNIT ( #20 ) );
#171 =( NAMED_UNIT ( * ) PLANE_ANGLE_UNIT ( ) SI_UNIT ( $, .RADIAN. ) );
#172 =( NAMED_UNIT ( * ) SI_UNIT ( $, .STERADIAN. ) SOLID_ANGLE_UNIT ( ) );
#173 = APPLICATION_PROTOCOL_DEFINITION ( 'draft international standard', 'automotive_design', 1998, #190 ) ;
#174 = FILL_AREA_STYLE_COLOUR ( '', #211 ) ;
#175 = FILL_AREA_STYLE ('',( #174 ) ) ;
#176 = SURFACE_STYLE_FILL_AREA ( #175 ) ;
#177 = SURFACE_SIDE_STYLE ('',( #176 ) ) ;
#178 = SURFACE_STYLE_USAGE ( .BOTH. , #177 ) ;
#179 = PRESENTATION_STYLE_ASSIGNMENT (( #178 ) ) ;
#180 =( LENGTH_UNIT ( ) NAMED_UNIT ( * ) SI_UNIT ( $, .METRE. ) );
#181 =( CONVERSION_BASED_UNIT ( 'INCH', #85 ) LENGTH_UNIT ( ) NAMED_UNIT ( #21 ) );
#182 =( NAMED_UNIT ( * ) PLANE_ANGLE_UNIT ( ) SI_UNIT ( $, .RADIAN. ) );
#183 =( NAMED_UNIT ( * ) SI_UNIT ( $, .STERADIAN. ) SOLID_ANGLE_UNIT ( ) );
#184 = CARTESIAN_POINT ( 'NONE',  ( 0.0000000000000000000, 0.0000000000000000000, 0.0000000000000000000 ) ) ;
#185 = DIRECTION ( 'NONE',  ( 0.0000000000000000000, 0.0000000000000000000, 1.000000000000000000 ) ) ;
#186 = DIRECTION ( 'NONE',  ( 1.000000000000000000, 0.0000000000000000000, 0.0000000000000000000 ) ) ;
#187 = SHAPE_DEFINITION_REPRESENTATION ( #22, #194 ) ;
#188 = PRODUCT_CONTEXT ( 'NONE', #190, 'mechanical' ) ;
#189 = APPLICATION_PROTOCOL_DEFINITION ( 'draft international standard', 'automotive_design', 1998, #191 ) ;
#190 = APPLICATION_CONTEXT ( 'automotive_design' ) ;
#191 = APPLICATION_CONTEXT ( 'automotive_design' ) ;
#192 = UNCERTAINTY_MEASURE_WITH_UNIT (LENGTH_MEASURE( 1.000000000000000100E-005 ), #181, 'distance_accuracy_value', 'NONE');
#193 = UNCERTAINTY_MEASURE_WITH_UNIT (LENGTH_MEASURE( 1.000000000000000100E-005 ), #170, 'distance_accuracy_value', 'NONE');
#194 = ADVANCED_BREP_SHAPE_REPRESENTATION ( 'C188A2', ( #23, #84 ), #82 ) ;
#195 = UNCERTAINTY_MEASURE_WITH_UNIT (LENGTH_MEASURE( 1.000000000000000100E-005 ), #10, 'distance_accuracy_value', 'NONE');
#196 = LINE ( 'NONE', #199, #107 ) ;
#197 = CARTESIAN_POINT ( 'NONE',  ( 0.0000000000000000000, 0.1875000000000000300, 0.0000000000000000000 ) ) ;
#198 = DIRECTION ( 'NONE',  ( -1.000000000000000000, -0.0000000000000000000, -0.0000000000000000000 ) ) ;
#199 = CARTESIAN_POINT ( 'NONE',  ( 0.0000000000000000000, 0.0000000000000000000, -0.1874999999999998300 ) ) ;
#200 =( NAMED_UNIT ( * ) SI_UNIT ( $, .STERADIAN. ) SOLID_ANGLE_UNIT ( ) );
#201 =( NAMED_UNIT ( * ) PLANE_ANGLE_UNIT ( ) SI_UNIT ( $, .RADIAN. ) );
#202 = VECTOR ( 'NONE', #110, 39.37007874015748100 ) ;
#203 = VECTOR ( 'NONE', #130, 39.37007874015748100 ) ;
#204 = VECTOR ( 'NONE', #127, 39.37007874015748100 ) ;
#205 = VECTOR ( 'NONE', #123, 39.37007874015748100 ) ;
#206 = FACE_OUTER_BOUND ( 'NONE', #43, .T. ) ;
#207 = FACE_OUTER_BOUND ( 'NONE', #58, .T. ) ;
#208 = VECTOR ( 'NONE', #113, 39.37007874015748100 ) ;
#209 = AXIS2_PLACEMENT_3D ( 'NONE', #138, #139, #140 ) ;
#210 = PRODUCT_RELATED_PRODUCT_CATEGORY ( 'part', '', ( #19 ) ) ;
#211 = COLOUR_RGB ( '',0.5686274509803921400, 0.5686274509803921400, 0.5882352941176470800 ) ;
ENDSEC;
END-ISO-10303-21;
