ISO-10303-21;
HEADER;
FILE_DESCRIPTION (( 'STEP AP214' ),
    '1' );
FILE_NAME ('C2000P.step',
    '2012-04-20T20:46:46',
    ( '' ),
    ( '' ),
    'SwSTEP 2.0',
    'SolidWorks 2012',
    '' );
FILE_SCHEMA (( 'AUTOMOTIVE_DESIGN' ));
ENDSEC;

DATA;
#1 = UNCERTAINTY_MEASURE_WITH_UNIT (LENGTH_MEASURE( 1.000000000000000100E-005 ), #13, 'distance_accuracy_value', 'NONE');
#2 = ADVANCED_BREP_SHAPE_REPRESENTATION ( 'C2000P', ( #26, #63 ), #210 ) ;
#3 = UNCERTAINTY_MEASURE_WITH_UNIT (LENGTH_MEASURE( 1.000000000000000100E-005 ), #185, 'distance_accuracy_value', 'NONE');
#4 = UNCERTAINTY_MEASURE_WITH_UNIT (LENGTH_MEASURE( 1.000000000000000100E-005 ), #174, 'distance_accuracy_value', 'NONE');
#5 = CARTESIAN_POINT ( 'NONE',  ( 1.999999999999999800, 2.000000000000000000, -2.000000000000000400 ) ) ;
#6 = PRESENTATION_LAYER_ASSIGNMENT (  '', '', ( #7 ) ) ;
#7 = STYLED_ITEM ( 'NONE', ( #183 ), #2 ) ;
#8 = VECTOR ( 'NONE', #172, 39.37007874015748100 ) ;
#9 = VECTOR ( 'NONE', #166, 39.37007874015748100 ) ;
#10 = MECHANICAL_DESIGN_GEOMETRIC_PRESENTATION_REPRESENTATION (  '', ( #7 ), #211 ) ;
#11 = VECTOR ( 'NONE', #169, 39.37007874015748100 ) ;
#12 = ORIENTED_EDGE ( 'NONE', *, *, #28, .T. ) ;
#13 =( CONVERSION_BASED_UNIT ( 'INCH', #82 ) LENGTH_UNIT ( ) NAMED_UNIT ( #24 ) );
#14 =( LENGTH_UNIT ( ) NAMED_UNIT ( * ) SI_UNIT ( $, .METRE. ) );
#15 = PRESENTATION_STYLE_ASSIGNMENT (( #16 ) ) ;
#16 = SURFACE_STYLE_USAGE ( .BOTH. , #17 ) ;
#17 = SURFACE_SIDE_STYLE ('',( #18 ) ) ;
#18 = SURFACE_STYLE_FILL_AREA ( #19 ) ;
#19 = FILL_AREA_STYLE ('',( #20 ) ) ;
#20 = FILL_AREA_STYLE_COLOUR ( '', #79 ) ;
#21 = DIMENSIONAL_EXPONENTS ( 1.000000000000000000, 0.0000000000000000000, 0.0000000000000000000, 0.0000000000000000000, 0.0000000000000000000, 0.0000000000000000000, 0.0000000000000000000 ) ;
#22 = DIMENSIONAL_EXPONENTS ( 1.000000000000000000, 0.0000000000000000000, 0.0000000000000000000, 0.0000000000000000000, 0.0000000000000000000, 0.0000000000000000000, 0.0000000000000000000 ) ;
#23 = PRODUCT ( 'C2000P', 'C2000P', '', ( #192 ) ) ;
#24 = DIMENSIONAL_EXPONENTS ( 1.000000000000000000, 0.0000000000000000000, 0.0000000000000000000, 0.0000000000000000000, 0.0000000000000000000, 0.0000000000000000000, 0.0000000000000000000 ) ;
#25 = PRODUCT_DEFINITION_CONTEXT ( 'detailed design', #109, 'design' ) ;
#26 = MANIFOLD_SOLID_BREP ( 'Boss-Extrude1', #85 ) ;
#27 = PRODUCT_DEFINITION_SHAPE ( 'NONE', 'NONE',  #75 ) ;
#28 = EDGE_CURVE ( 'NONE', #53, #55, #197, .T. ) ;
#29 = EDGE_CURVE ( 'NONE', #51, #55, #44, .T. ) ;
#30 = EDGE_CURVE ( 'NONE', #54, #52, #112, .T. ) ;
#31 = COLOUR_RGB ( '',0.5686274509803921400, 0.5686274509803921400, 0.5882352941176470800 ) ;
#32 = EDGE_CURVE ( 'NONE', #54, #56, #115, .T. ) ;
#33 = VECTOR ( 'NONE', #163, 39.37007874015748100 ) ;
#34 = VECTOR ( 'NONE', #160, 39.37007874015748100 ) ;
#35 = AXIS2_PLACEMENT_3D ( 'NONE', #140, #141, #142 ) ;
#36 = VECTOR ( 'NONE', #157, 39.37007874015748100 ) ;
#37 = FACE_OUTER_BOUND ( 'NONE', #92, .T. ) ;
#38 = FACE_OUTER_BOUND ( 'NONE', #57, .T. ) ;
#39 = LENGTH_MEASURE_WITH_UNIT ( LENGTH_MEASURE( 0.02539999999999999900 ), #173 );
#40 = AXIS2_PLACEMENT_3D ( 'NONE', #152, #153, #154 ) ;
#41 = AXIS2_PLACEMENT_3D ( 'NONE', #148, #149, #150 ) ;
#42 = FACE_OUTER_BOUND ( 'NONE', #59, .T. ) ;
#43 = CARTESIAN_POINT ( 'NONE',  ( 0.0000000000000000000, 0.0000000000000000000, -2.000000000000000400 ) ) ;
#44 = LINE ( 'NONE', #5, #83 ) ;
#45 = ORIENTED_EDGE ( 'NONE', *, *, #30, .T. ) ;
#46 = ORIENTED_EDGE ( 'NONE', *, *, #65, .F. ) ;
#47 = ORIENTED_EDGE ( 'NONE', *, *, #32, .F. ) ;
#48 = ORIENTED_EDGE ( 'NONE', *, *, #64, .T. ) ;
#49 = VERTEX_POINT ( 'NONE', #43 ) ;
#50 = VERTEX_POINT ( 'NONE', #118 ) ;
#51 = VERTEX_POINT ( 'NONE', #119 ) ;
#52 = VERTEX_POINT ( 'NONE', #120 ) ;
#53 = VERTEX_POINT ( 'NONE', #121 ) ;
#54 = VERTEX_POINT ( 'NONE', #122 ) ;
#55 = VERTEX_POINT ( 'NONE', #123 ) ;
#56 = VERTEX_POINT ( 'NONE', #124 ) ;
#57 = EDGE_LOOP ( 'NONE', ( #12, #103, #90, #93 ) ) ;
#58 = EDGE_LOOP ( 'NONE', ( #48, #46, #47, #45 ) ) ;
#59 = EDGE_LOOP ( 'NONE', ( #101, #95, #96, #106 ) ) ;
#60 = EDGE_LOOP ( 'NONE', ( #100, #97, #89, #99 ) ) ;
#61 = LENGTH_MEASURE_WITH_UNIT ( LENGTH_MEASURE( 0.02539999999999999900 ), #184 );
#62 = PRODUCT_DEFINITION_FORMATION_WITH_SPECIFIED_SOURCE ( 'ANY', '', #23, .NOT_KNOWN. ) ;
#63 = AXIS2_PLACEMENT_3D ( 'NONE', #188, #189, #190 ) ;
#64 = EDGE_CURVE ( 'NONE', #52, #53, #125, .T. ) ;
#65 = EDGE_CURVE ( 'NONE', #56, #53, #129, .T. ) ;
#66 = ADVANCED_FACE ( 'NONE', ( #204 ), #128, .F. ) ;
#67 = ADVANCED_FACE ( 'NONE', ( #206 ), #135, .F. ) ;
#68 = ADVANCED_FACE ( 'NONE', ( #199 ), #139, .F. ) ;
#69 = ADVANCED_FACE ( 'NONE', ( #37 ), #143, .F. ) ;
#70 = ADVANCED_FACE ( 'NONE', ( #38 ), #147, .F. ) ;
#71 = ADVANCED_FACE ( 'NONE', ( #42 ), #151, .T. ) ;
#72 = EDGE_CURVE ( 'NONE', #49, #52, #155, .T. ) ;
#73 = EDGE_CURVE ( 'NONE', #50, #54, #158, .T. ) ;
#74 = PRODUCT_RELATED_PRODUCT_CATEGORY ( 'part', '', ( #23 ) ) ;
#75 = PRODUCT_DEFINITION ( 'UNKNOWN', '', #62, #25 ) ;
#76 = EDGE_CURVE ( 'NONE', #51, #50, #161, .T. ) ;
#77 = EDGE_CURVE ( 'NONE', #55, #49, #164, .T. ) ;
#78 = EDGE_CURVE ( 'NONE', #50, #49, #167, .T. ) ;
#79 = COLOUR_RGB ( '',0.5686274509803921400, 0.5686274509803921400, 0.5882352941176470800 ) ;
#80 = EDGE_CURVE ( 'NONE', #56, #51, #170, .T. ) ;
#81 = STYLED_ITEM ( 'NONE', ( #15 ), #26 ) ;
#82 = LENGTH_MEASURE_WITH_UNIT ( LENGTH_MEASURE( 0.02539999999999999900 ), #14 );
#83 = VECTOR ( 'NONE', #111, 39.37007874015748100 ) ;
#84 = VECTOR ( 'NONE', #194, 39.37007874015748100 ) ;
#85 = CLOSED_SHELL ( 'NONE', ( #66, #70, #68, #69, #67, #71 ) ) ;
#86 = PRESENTATION_LAYER_ASSIGNMENT (  '', '', ( #81 ) ) ;
#87 = MECHANICAL_DESIGN_GEOMETRIC_PRESENTATION_REPRESENTATION (  '', ( #81 ), #209 ) ;
#88 = ORIENTED_EDGE ( 'NONE', *, *, #78, .F. ) ;
#89 = ORIENTED_EDGE ( 'NONE', *, *, #76, .T. ) ;
#90 = ORIENTED_EDGE ( 'NONE', *, *, #80, .F. ) ;
#91 = ORIENTED_EDGE ( 'NONE', *, *, #76, .F. ) ;
#92 = EDGE_LOOP ( 'NONE', ( #105, #104, #108, #107 ) ) ;
#93 = ORIENTED_EDGE ( 'NONE', *, *, #65, .T. ) ;
#94 = ORIENTED_EDGE ( 'NONE', *, *, #29, .T. ) ;
#95 = ORIENTED_EDGE ( 'NONE', *, *, #72, .F. ) ;
#96 = ORIENTED_EDGE ( 'NONE', *, *, #77, .F. ) ;
#97 = ORIENTED_EDGE ( 'NONE', *, *, #80, .T. ) ;
#98 = EDGE_LOOP ( 'NONE', ( #102, #88, #91, #94 ) ) ;
#99 = ORIENTED_EDGE ( 'NONE', *, *, #73, .T. ) ;
#100 = ORIENTED_EDGE ( 'NONE', *, *, #32, .T. ) ;
#101 = ORIENTED_EDGE ( 'NONE', *, *, #64, .F. ) ;
#102 = ORIENTED_EDGE ( 'NONE', *, *, #77, .T. ) ;
#103 = ORIENTED_EDGE ( 'NONE', *, *, #29, .F. ) ;
#104 = ORIENTED_EDGE ( 'NONE', *, *, #30, .F. ) ;
#105 = ORIENTED_EDGE ( 'NONE', *, *, #72, .T. ) ;
#106 = ORIENTED_EDGE ( 'NONE', *, *, #28, .F. ) ;
#107 = ORIENTED_EDGE ( 'NONE', *, *, #78, .T. ) ;
#108 = ORIENTED_EDGE ( 'NONE', *, *, #73, .F. ) ;
#109 = APPLICATION_CONTEXT ( 'automotive_design' ) ;
#110 = APPLICATION_CONTEXT ( 'automotive_design' ) ;
#111 = DIRECTION ( 'NONE',  ( -0.0000000000000000000, -1.000000000000000000, -0.0000000000000000000 ) ) ;
#112 = LINE ( 'NONE', #113, #205 ) ;
#113 = CARTESIAN_POINT ( 'NONE',  ( 0.0000000000000000000, 2.000000000000000000, 0.0000000000000000000 ) ) ;
#114 = DIRECTION ( 'NONE',  ( -0.0000000000000000000, -1.000000000000000000, -0.0000000000000000000 ) ) ;
#115 = LINE ( 'NONE', #116, #208 ) ;
#116 = CARTESIAN_POINT ( 'NONE',  ( 2.000000000000000000, 2.000000000000000000, -2.219672323454577800E-016 ) ) ;
#117 = DIRECTION ( 'NONE',  ( 1.000000000000000000, -0.0000000000000000000, -1.109836161727288900E-016 ) ) ;
#118 = CARTESIAN_POINT ( 'NONE',  ( 0.0000000000000000000, 2.000000000000000000, -2.000000000000000400 ) ) ;
#119 = CARTESIAN_POINT ( 'NONE',  ( 1.999999999999999800, 2.000000000000000000, -2.000000000000000400 ) ) ;
#120 = CARTESIAN_POINT ( 'NONE',  ( 0.0000000000000000000, 0.0000000000000000000, 0.0000000000000000000 ) ) ;
#121 = CARTESIAN_POINT ( 'NONE',  ( 2.000000000000000000, 0.0000000000000000000, -2.219672323454577800E-016 ) ) ;
#122 = CARTESIAN_POINT ( 'NONE',  ( 0.0000000000000000000, 2.000000000000000000, 0.0000000000000000000 ) ) ;
#123 = CARTESIAN_POINT ( 'NONE',  ( 1.999999999999999800, 0.0000000000000000000, -2.000000000000000400 ) ) ;
#124 = CARTESIAN_POINT ( 'NONE',  ( 2.000000000000000000, 2.000000000000000000, -2.219672323454577800E-016 ) ) ;
#125 = LINE ( 'NONE', #126, #203 ) ;
#126 = CARTESIAN_POINT ( 'NONE',  ( 2.000000000000000000, 0.0000000000000000000, -2.219672323454577800E-016 ) ) ;
#127 = DIRECTION ( 'NONE',  ( 1.000000000000000000, -0.0000000000000000000, -1.109836161727288900E-016 ) ) ;
#128 = PLANE ( 'NONE',  #200 ) ;
#129 = LINE ( 'NONE', #130, #202 ) ;
#130 = CARTESIAN_POINT ( 'NONE',  ( 2.000000000000000000, 2.000000000000000000, -2.219672323454577800E-016 ) ) ;
#131 = DIRECTION ( 'NONE',  ( -0.0000000000000000000, -1.000000000000000000, -0.0000000000000000000 ) ) ;
#132 = CARTESIAN_POINT ( 'NONE',  ( 2.000000000000000000, 2.000000000000000000, -2.219672323454577800E-016 ) ) ;
#133 = DIRECTION ( 'NONE',  ( -1.109836161727288900E-016, 0.0000000000000000000, -1.000000000000000000 ) ) ;
#134 = DIRECTION ( 'NONE',  ( -1.000000000000000000, 0.0000000000000000000, 1.109836161727288900E-016 ) ) ;
#135 = PLANE ( 'NONE',  #201 ) ;
#136 = CARTESIAN_POINT ( 'NONE',  ( 0.0000000000000000000, 2.000000000000000000, 0.0000000000000000000 ) ) ;
#137 = DIRECTION ( 'NONE',  ( 0.0000000000000000000, -1.000000000000000000, -0.0000000000000000000 ) ) ;
#138 = DIRECTION ( 'NONE',  ( 0.0000000000000000000, 0.0000000000000000000, -1.000000000000000000 ) ) ;
#139 = PLANE ( 'NONE',  #35 ) ;
#140 = CARTESIAN_POINT ( 'NONE',  ( 0.0000000000000000000, 2.000000000000000000, -2.000000000000000400 ) ) ;
#141 = DIRECTION ( 'NONE',  ( 0.0000000000000000000, 0.0000000000000000000, 1.000000000000000000 ) ) ;
#142 = DIRECTION ( 'NONE',  ( 1.000000000000000000, 0.0000000000000000000, -0.0000000000000000000 ) ) ;
#143 = PLANE ( 'NONE',  #207 ) ;
#144 = CARTESIAN_POINT ( 'NONE',  ( 0.0000000000000000000, 2.000000000000000000, 0.0000000000000000000 ) ) ;
#145 = DIRECTION ( 'NONE',  ( 1.000000000000000000, -0.0000000000000000000, 0.0000000000000000000 ) ) ;
#146 = DIRECTION ( 'NONE',  ( 0.0000000000000000000, 0.0000000000000000000, -1.000000000000000000 ) ) ;
#147 = PLANE ( 'NONE',  #41 ) ;
#148 = CARTESIAN_POINT ( 'NONE',  ( 1.999999999999999800, 2.000000000000000000, -2.000000000000000400 ) ) ;
#149 = DIRECTION ( 'NONE',  ( -1.000000000000000000, 0.0000000000000000000, 1.365923996832131600E-016 ) ) ;
#150 = DIRECTION ( 'NONE',  ( 1.365923996832131600E-016, 0.0000000000000000000, 1.000000000000000000 ) ) ;
#151 = PLANE ( 'NONE',  #40 ) ;
#152 = CARTESIAN_POINT ( 'NONE',  ( 0.0000000000000000000, 0.0000000000000000000, 0.0000000000000000000 ) ) ;
#153 = DIRECTION ( 'NONE',  ( 0.0000000000000000000, -1.000000000000000000, -0.0000000000000000000 ) ) ;
#154 = DIRECTION ( 'NONE',  ( 0.0000000000000000000, 0.0000000000000000000, -1.000000000000000000 ) ) ;
#155 = LINE ( 'NONE', #156, #36 ) ;
#156 = CARTESIAN_POINT ( 'NONE',  ( 0.0000000000000000000, 0.0000000000000000000, 0.0000000000000000000 ) ) ;
#157 = DIRECTION ( 'NONE',  ( -0.0000000000000000000, -0.0000000000000000000, 1.000000000000000000 ) ) ;
#158 = LINE ( 'NONE', #159, #34 ) ;
#159 = CARTESIAN_POINT ( 'NONE',  ( 0.0000000000000000000, 2.000000000000000000, 0.0000000000000000000 ) ) ;
#160 = DIRECTION ( 'NONE',  ( -0.0000000000000000000, -0.0000000000000000000, 1.000000000000000000 ) ) ;
#161 = LINE ( 'NONE', #162, #33 ) ;
#162 = CARTESIAN_POINT ( 'NONE',  ( 0.0000000000000000000, 2.000000000000000000, -2.000000000000000400 ) ) ;
#163 = DIRECTION ( 'NONE',  ( -1.000000000000000000, -0.0000000000000000000, -0.0000000000000000000 ) ) ;
#164 = LINE ( 'NONE', #165, #9 ) ;
#165 = CARTESIAN_POINT ( 'NONE',  ( 0.0000000000000000000, 0.0000000000000000000, -2.000000000000000400 ) ) ;
#166 = DIRECTION ( 'NONE',  ( -1.000000000000000000, -0.0000000000000000000, -0.0000000000000000000 ) ) ;
#167 = LINE ( 'NONE', #168, #11 ) ;
#168 = CARTESIAN_POINT ( 'NONE',  ( 0.0000000000000000000, 2.000000000000000000, -2.000000000000000400 ) ) ;
#169 = DIRECTION ( 'NONE',  ( -0.0000000000000000000, -1.000000000000000000, -0.0000000000000000000 ) ) ;
#170 = LINE ( 'NONE', #171, #8 ) ;
#171 = CARTESIAN_POINT ( 'NONE',  ( 1.999999999999999800, 2.000000000000000000, -2.000000000000000400 ) ) ;
#172 = DIRECTION ( 'NONE',  ( -1.365923996832131600E-016, -0.0000000000000000000, -1.000000000000000000 ) ) ;
#173 =( LENGTH_UNIT ( ) NAMED_UNIT ( * ) SI_UNIT ( $, .METRE. ) );
#174 =( CONVERSION_BASED_UNIT ( 'INCH', #39 ) LENGTH_UNIT ( ) NAMED_UNIT ( #21 ) );
#175 =( NAMED_UNIT ( * ) PLANE_ANGLE_UNIT ( ) SI_UNIT ( $, .RADIAN. ) );
#176 =( NAMED_UNIT ( * ) SI_UNIT ( $, .STERADIAN. ) SOLID_ANGLE_UNIT ( ) );
#177 = APPLICATION_PROTOCOL_DEFINITION ( 'draft international standard', 'automotive_design', 1998, #110 ) ;
#178 = FILL_AREA_STYLE_COLOUR ( '', #31 ) ;
#179 = FILL_AREA_STYLE ('',( #178 ) ) ;
#180 = SURFACE_STYLE_FILL_AREA ( #179 ) ;
#181 = SURFACE_SIDE_STYLE ('',( #180 ) ) ;
#182 = SURFACE_STYLE_USAGE ( .BOTH. , #181 ) ;
#183 = PRESENTATION_STYLE_ASSIGNMENT (( #182 ) ) ;
#184 =( LENGTH_UNIT ( ) NAMED_UNIT ( * ) SI_UNIT ( $, .METRE. ) );
#185 =( CONVERSION_BASED_UNIT ( 'INCH', #61 ) LENGTH_UNIT ( ) NAMED_UNIT ( #22 ) );
#186 =( NAMED_UNIT ( * ) PLANE_ANGLE_UNIT ( ) SI_UNIT ( $, .RADIAN. ) );
#187 =( NAMED_UNIT ( * ) SI_UNIT ( $, .STERADIAN. ) SOLID_ANGLE_UNIT ( ) );
#188 = CARTESIAN_POINT ( 'NONE',  ( 0.0000000000000000000, 0.0000000000000000000, 0.0000000000000000000 ) ) ;
#189 = DIRECTION ( 'NONE',  ( 0.0000000000000000000, 0.0000000000000000000, 1.000000000000000000 ) ) ;
#190 = DIRECTION ( 'NONE',  ( 1.000000000000000000, 0.0000000000000000000, 0.0000000000000000000 ) ) ;
#191 = SHAPE_DEFINITION_REPRESENTATION ( #27, #2 ) ;
#192 = PRODUCT_CONTEXT ( 'NONE', #110, 'mechanical' ) ;
#193 = APPLICATION_PROTOCOL_DEFINITION ( 'draft international standard', 'automotive_design', 1998, #109 ) ;
#194 = DIRECTION ( 'NONE',  ( -1.365923996832131600E-016, -0.0000000000000000000, -1.000000000000000000 ) ) ;
#195 = CARTESIAN_POINT ( 'NONE',  ( 1.999999999999999800, 0.0000000000000000000, -2.000000000000000400 ) ) ;
#196 =( NAMED_UNIT ( * ) SI_UNIT ( $, .STERADIAN. ) SOLID_ANGLE_UNIT ( ) );
#197 = LINE ( 'NONE', #195, #84 ) ;
#198 =( NAMED_UNIT ( * ) PLANE_ANGLE_UNIT ( ) SI_UNIT ( $, .RADIAN. ) );
#199 = FACE_OUTER_BOUND ( 'NONE', #98, .T. ) ;
#200 = AXIS2_PLACEMENT_3D ( 'NONE', #132, #133, #134 ) ;
#201 = AXIS2_PLACEMENT_3D ( 'NONE', #136, #137, #138 ) ;
#202 = VECTOR ( 'NONE', #131, 39.37007874015748100 ) ;
#203 = VECTOR ( 'NONE', #127, 39.37007874015748100 ) ;
#204 = FACE_OUTER_BOUND ( 'NONE', #58, .T. ) ;
#205 = VECTOR ( 'NONE', #114, 39.37007874015748100 ) ;
#206 = FACE_OUTER_BOUND ( 'NONE', #60, .T. ) ;
#207 = AXIS2_PLACEMENT_3D ( 'NONE', #144, #145, #146 ) ;
#208 = VECTOR ( 'NONE', #117, 39.37007874015748100 ) ;
#209 =( GEOMETRIC_REPRESENTATION_CONTEXT ( 3 ) GLOBAL_UNCERTAINTY_ASSIGNED_CONTEXT ( ( #1 ) ) GLOBAL_UNIT_ASSIGNED_CONTEXT ( ( #13, #198, #196 ) ) REPRESENTATION_CONTEXT ( 'NONE', 'WORKASPACE' ) );
#210 =( GEOMETRIC_REPRESENTATION_CONTEXT ( 3 ) GLOBAL_UNCERTAINTY_ASSIGNED_CONTEXT ( ( #4 ) ) GLOBAL_UNIT_ASSIGNED_CONTEXT ( ( #174, #175, #176 ) ) REPRESENTATION_CONTEXT ( 'NONE', 'WORKASPACE' ) );
#211 =( GEOMETRIC_REPRESENTATION_CONTEXT ( 3 ) GLOBAL_UNCERTAINTY_ASSIGNED_CONTEXT ( ( #3 ) ) GLOBAL_UNIT_ASSIGNED_CONTEXT ( ( #185, #186, #187 ) ) REPRESENTATION_CONTEXT ( 'NONE', 'WORKASPACE' ) );
ENDSEC;
END-ISO-10303-21;
