ISO-10303-21;
HEADER;
FILE_DESCRIPTION (( 'STEP AP214' ),
    '1' );
FILE_NAME ('C250B.step',
    '2012-04-20T20:46:48',
    ( '' ),
    ( '' ),
    'SwSTEP 2.0',
    'SolidWorks 2012',
    '' );
FILE_SCHEMA (( 'AUTOMOTIVE_DESIGN' ));
ENDSEC;

DATA;
#1 = CARTESIAN_POINT ( 'NONE',  ( 0.2500000000000000600, 0.2500000000000000000, 2.143131898507868300E-016 ) ) ;
#2 = PRODUCT_DEFINITION_FORMATION_WITH_SPECIFIED_SOURCE ( 'ANY', '', #21, .NOT_KNOWN. ) ;
#3 = CARTESIAN_POINT ( 'NONE',  ( 0.0000000000000000000, 0.2500000000000000000, 0.0000000000000000000 ) ) ;
#4 = DIRECTION ( 'NONE',  ( -0.0000000000000000000, -1.000000000000000000, -0.0000000000000000000 ) ) ;
#5 = VECTOR ( 'NONE', #169, 39.37007874015748100 ) ;
#6 = STYLED_ITEM ( 'NONE', ( #187 ), #30 ) ;
#7 = VECTOR ( 'NONE', #176, 39.37007874015748100 ) ;
#8 = AXIS2_PLACEMENT_3D ( 'NONE', #171, #172, #173 ) ;
#9 = LENGTH_MEASURE_WITH_UNIT ( LENGTH_MEASURE( 0.02539999999999999900 ), #177 );
#10 = PRESENTATION_STYLE_ASSIGNMENT (( #13 ) ) ;
#11 =( LENGTH_UNIT ( ) NAMED_UNIT ( * ) SI_UNIT ( $, .METRE. ) );
#12 = SURFACE_SIDE_STYLE ('',( #14 ) ) ;
#13 = SURFACE_STYLE_USAGE ( .BOTH. , #12 ) ;
#14 = SURFACE_STYLE_FILL_AREA ( #15 ) ;
#15 = FILL_AREA_STYLE ('',( #16 ) ) ;
#16 = FILL_AREA_STYLE_COLOUR ( '', #33 ) ;
#17 = ORIENTED_EDGE ( 'NONE', *, *, #35, .T. ) ;
#18 = ORIENTED_EDGE ( 'NONE', *, *, #32, .T. ) ;
#19 = ORIENTED_EDGE ( 'NONE', *, *, #94, .F. ) ;
#20 = DIMENSIONAL_EXPONENTS ( 1.000000000000000000, 0.0000000000000000000, 0.0000000000000000000, 0.0000000000000000000, 0.0000000000000000000, 0.0000000000000000000, 0.0000000000000000000 ) ;
#21 = PRODUCT ( 'C250B', 'C250B', '', ( #196 ) ) ;
#22 = DIMENSIONAL_EXPONENTS ( 1.000000000000000000, 0.0000000000000000000, 0.0000000000000000000, 0.0000000000000000000, 0.0000000000000000000, 0.0000000000000000000, 0.0000000000000000000 ) ;
#23 = DIMENSIONAL_EXPONENTS ( 1.000000000000000000, 0.0000000000000000000, 0.0000000000000000000, 0.0000000000000000000, 0.0000000000000000000, 0.0000000000000000000, 0.0000000000000000000 ) ;
#24 = PRODUCT_DEFINITION_SHAPE ( 'NONE', 'NONE',  #211 ) ;
#25 = MANIFOLD_SOLID_BREP ( 'Boss-Extrude1', #105 ) ;
#26 = PRODUCT_DEFINITION_CONTEXT ( 'detailed design', #111, 'design' ) ;
#27 = UNCERTAINTY_MEASURE_WITH_UNIT (LENGTH_MEASURE( 1.000000000000000100E-005 ), #178, 'distance_accuracy_value', 'NONE');
#28 = UNCERTAINTY_MEASURE_WITH_UNIT (LENGTH_MEASURE( 1.000000000000000100E-005 ), #189, 'distance_accuracy_value', 'NONE');
#29 = UNCERTAINTY_MEASURE_WITH_UNIT (LENGTH_MEASURE( 1.000000000000000100E-005 ), #199, 'distance_accuracy_value', 'NONE');
#30 = ADVANCED_BREP_SHAPE_REPRESENTATION ( 'C250B', ( #25, #90 ), #85 ) ;
#31 = COLOUR_RGB ( '',0.5686274509803921400, 0.5686274509803921400, 0.5882352941176470800 ) ;
#32 = EDGE_CURVE ( 'NONE', #63, #83, #198, .T. ) ;
#33 = COLOUR_RGB ( '',0.5686274509803921400, 0.5686274509803921400, 0.5882352941176470800 ) ;
#34 = EDGE_CURVE ( 'NONE', #63, #59, #113, .T. ) ;
#35 = EDGE_CURVE ( 'NONE', #60, #64, #116, .T. ) ;
#36 = EDGE_CURVE ( 'NONE', #82, #64, #119, .T. ) ;
#37 = AXIS2_PLACEMENT_3D ( 'NONE', #164, #165, #166 ) ;
#38 = FACE_OUTER_BOUND ( 'NONE', #65, .T. ) ;
#39 = VECTOR ( 'NONE', #144, 39.37007874015748100 ) ;
#40 = FACE_OUTER_BOUND ( 'NONE', #67, .T. ) ;
#41 = AXIS2_PLACEMENT_3D ( 'NONE', #160, #161, #162 ) ;
#42 = VECTOR ( 'NONE', #141, 39.37007874015748100 ) ;
#43 = VECTOR ( 'NONE', #147, 39.37007874015748100 ) ;
#44 = AXIS2_PLACEMENT_3D ( 'NONE', #156, #157, #158 ) ;
#45 = FACE_OUTER_BOUND ( 'NONE', #49, .T. ) ;
#46 = AXIS2_PLACEMENT_3D ( 'NONE', #148, #149, #150 ) ;
#47 = FACE_OUTER_BOUND ( 'NONE', #66, .T. ) ;
#48 = FACE_OUTER_BOUND ( 'NONE', #62, .T. ) ;
#49 = EDGE_LOOP ( 'NONE', ( #51, #53, #52, #54 ) ) ;
#50 = ORIENTED_EDGE ( 'NONE', *, *, #94, .T. ) ;
#51 = ORIENTED_EDGE ( 'NONE', *, *, #91, .T. ) ;
#52 = ORIENTED_EDGE ( 'NONE', *, *, #102, .F. ) ;
#53 = ORIENTED_EDGE ( 'NONE', *, *, #92, .F. ) ;
#54 = ORIENTED_EDGE ( 'NONE', *, *, #36, .T. ) ;
#55 = ORIENTED_EDGE ( 'NONE', *, *, #96, .F. ) ;
#56 = ORIENTED_EDGE ( 'NONE', *, *, #104, .T. ) ;
#57 = ORIENTED_EDGE ( 'NONE', *, *, #93, .F. ) ;
#58 = ORIENTED_EDGE ( 'NONE', *, *, #36, .F. ) ;
#59 = VERTEX_POINT ( 'NONE', #1 ) ;
#60 = VERTEX_POINT ( 'NONE', #122 ) ;
#61 = EDGE_LOOP ( 'NONE', ( #69, #19, #68, #18 ) ) ;
#62 = EDGE_LOOP ( 'NONE', ( #17, #58, #57, #50 ) ) ;
#63 = VERTEX_POINT ( 'NONE', #123 ) ;
#64 = VERTEX_POINT ( 'NONE', #124 ) ;
#65 = EDGE_LOOP ( 'NONE', ( #72, #71, #70, #73 ) ) ;
#66 = EDGE_LOOP ( 'NONE', ( #56, #79, #55, #77 ) ) ;
#67 = EDGE_LOOP ( 'NONE', ( #76, #75, #74, #78 ) ) ;
#68 = ORIENTED_EDGE ( 'NONE', *, *, #34, .F. ) ;
#69 = ORIENTED_EDGE ( 'NONE', *, *, #95, .T. ) ;
#70 = ORIENTED_EDGE ( 'NONE', *, *, #91, .F. ) ;
#71 = ORIENTED_EDGE ( 'NONE', *, *, #104, .F. ) ;
#72 = ORIENTED_EDGE ( 'NONE', *, *, #95, .F. ) ;
#73 = ORIENTED_EDGE ( 'NONE', *, *, #35, .F. ) ;
#74 = ORIENTED_EDGE ( 'NONE', *, *, #102, .T. ) ;
#75 = ORIENTED_EDGE ( 'NONE', *, *, #93, .T. ) ;
#76 = ORIENTED_EDGE ( 'NONE', *, *, #34, .T. ) ;
#77 = ORIENTED_EDGE ( 'NONE', *, *, #92, .T. ) ;
#78 = ORIENTED_EDGE ( 'NONE', *, *, #96, .T. ) ;
#79 = ORIENTED_EDGE ( 'NONE', *, *, #32, .F. ) ;
#80 = VERTEX_POINT ( 'NONE', #125 ) ;
#81 = VERTEX_POINT ( 'NONE', #126 ) ;
#82 = VERTEX_POINT ( 'NONE', #127 ) ;
#83 = VERTEX_POINT ( 'NONE', #128 ) ;
#84 =( GEOMETRIC_REPRESENTATION_CONTEXT ( 3 ) GLOBAL_UNCERTAINTY_ASSIGNED_CONTEXT ( ( #29 ) ) GLOBAL_UNIT_ASSIGNED_CONTEXT ( ( #199, #201, #200 ) ) REPRESENTATION_CONTEXT ( 'NONE', 'WORKASPACE' ) );
#85 =( GEOMETRIC_REPRESENTATION_CONTEXT ( 3 ) GLOBAL_UNCERTAINTY_ASSIGNED_CONTEXT ( ( #27 ) ) GLOBAL_UNIT_ASSIGNED_CONTEXT ( ( #178, #179, #180 ) ) REPRESENTATION_CONTEXT ( 'NONE', 'WORKASPACE' ) );
#86 =( GEOMETRIC_REPRESENTATION_CONTEXT ( 3 ) GLOBAL_UNCERTAINTY_ASSIGNED_CONTEXT ( ( #28 ) ) GLOBAL_UNIT_ASSIGNED_CONTEXT ( ( #189, #190, #191 ) ) REPRESENTATION_CONTEXT ( 'NONE', 'WORKASPACE' ) );
#87 = PRESENTATION_LAYER_ASSIGNMENT (  '', '', ( #6 ) ) ;
#88 = LENGTH_MEASURE_WITH_UNIT ( LENGTH_MEASURE( 0.02539999999999999900 ), #188 );
#89 = MECHANICAL_DESIGN_GEOMETRIC_PRESENTATION_REPRESENTATION (  '', ( #6 ), #86 ) ;
#90 = AXIS2_PLACEMENT_3D ( 'NONE', #192, #193, #194 ) ;
#91 = EDGE_CURVE ( 'NONE', #64, #80, #129, .T. ) ;
#92 = EDGE_CURVE ( 'NONE', #81, #80, #133, .T. ) ;
#93 = EDGE_CURVE ( 'NONE', #59, #82, #136, .T. ) ;
#94 = EDGE_CURVE ( 'NONE', #59, #60, #139, .T. ) ;
#95 = EDGE_CURVE ( 'NONE', #83, #60, #142, .T. ) ;
#96 = EDGE_CURVE ( 'NONE', #81, #63, #145, .T. ) ;
#97 = ADVANCED_FACE ( 'NONE', ( #204 ), #132, .F. ) ;
#98 = ADVANCED_FACE ( 'NONE', ( #48 ), #151, .F. ) ;
#99 = ADVANCED_FACE ( 'NONE', ( #47 ), #155, .F. ) ;
#100 = ADVANCED_FACE ( 'NONE', ( #45 ), #159, .F. ) ;
#101 = ADVANCED_FACE ( 'NONE', ( #40 ), #163, .F. ) ;
#102 = EDGE_CURVE ( 'NONE', #82, #81, #167, .T. ) ;
#103 = ADVANCED_FACE ( 'NONE', ( #38 ), #170, .T. ) ;
#104 = EDGE_CURVE ( 'NONE', #80, #83, #174, .T. ) ;
#105 = CLOSED_SHELL ( 'NONE', ( #97, #98, #100, #99, #101, #103 ) ) ;
#106 = VECTOR ( 'NONE', #4, 39.37007874015748100 ) ;
#107 = LENGTH_MEASURE_WITH_UNIT ( LENGTH_MEASURE( 0.02539999999999999900 ), #11 );
#108 = STYLED_ITEM ( 'NONE', ( #10 ), #25 ) ;
#109 = MECHANICAL_DESIGN_GEOMETRIC_PRESENTATION_REPRESENTATION (  '', ( #108 ), #84 ) ;
#110 = PRESENTATION_LAYER_ASSIGNMENT (  '', '', ( #108 ) ) ;
#111 = APPLICATION_CONTEXT ( 'automotive_design' ) ;
#112 = APPLICATION_CONTEXT ( 'automotive_design' ) ;
#113 = LINE ( 'NONE', #114, #205 ) ;
#114 = CARTESIAN_POINT ( 'NONE',  ( 0.2500000000000000600, 0.2500000000000000000, 2.143131898507868300E-016 ) ) ;
#115 = DIRECTION ( 'NONE',  ( 1.000000000000000000, -0.0000000000000000000, 8.572527594031472200E-016 ) ) ;
#116 = LINE ( 'NONE', #117, #207 ) ;
#117 = CARTESIAN_POINT ( 'NONE',  ( 0.2500000000000000600, 0.0000000000000000000, -0.2499999999999998100 ) ) ;
#118 = DIRECTION ( 'NONE',  ( -0.0000000000000000000, -0.0000000000000000000, -1.000000000000000000 ) ) ;
#119 = LINE ( 'NONE', #120, #206 ) ;
#120 = CARTESIAN_POINT ( 'NONE',  ( 0.2500000000000000600, 0.2500000000000000000, -0.2499999999999998100 ) ) ;
#121 = DIRECTION ( 'NONE',  ( -0.0000000000000000000, -1.000000000000000000, -0.0000000000000000000 ) ) ;
#122 = CARTESIAN_POINT ( 'NONE',  ( 0.2500000000000000600, 0.0000000000000000000, 2.143131898507868300E-016 ) ) ;
#123 = CARTESIAN_POINT ( 'NONE',  ( 0.0000000000000000000, 0.2500000000000000000, 0.0000000000000000000 ) ) ;
#124 = CARTESIAN_POINT ( 'NONE',  ( 0.2500000000000000600, 0.0000000000000000000, -0.2499999999999998100 ) ) ;
#125 = CARTESIAN_POINT ( 'NONE',  ( 0.0000000000000000000, 0.0000000000000000000, -0.2499999999999998100 ) ) ;
#126 = CARTESIAN_POINT ( 'NONE',  ( 0.0000000000000000000, 0.2500000000000000000, -0.2499999999999998100 ) ) ;
#127 = CARTESIAN_POINT ( 'NONE',  ( 0.2500000000000000600, 0.2500000000000000000, -0.2499999999999998100 ) ) ;
#128 = CARTESIAN_POINT ( 'NONE',  ( 0.0000000000000000000, 0.0000000000000000000, 0.0000000000000000000 ) ) ;
#129 = LINE ( 'NONE', #130, #208 ) ;
#130 = CARTESIAN_POINT ( 'NONE',  ( 0.0000000000000000000, 0.0000000000000000000, -0.2499999999999998100 ) ) ;
#131 = DIRECTION ( 'NONE',  ( -1.000000000000000000, -0.0000000000000000000, -0.0000000000000000000 ) ) ;
#132 = PLANE ( 'NONE',  #46 ) ;
#133 = LINE ( 'NONE', #134, #203 ) ;
#134 = CARTESIAN_POINT ( 'NONE',  ( 0.0000000000000000000, 0.2500000000000000000, -0.2499999999999998100 ) ) ;
#135 = DIRECTION ( 'NONE',  ( -0.0000000000000000000, -1.000000000000000000, -0.0000000000000000000 ) ) ;
#136 = LINE ( 'NONE', #137, #202 ) ;
#137 = CARTESIAN_POINT ( 'NONE',  ( 0.2500000000000000600, 0.2500000000000000000, -0.2499999999999998100 ) ) ;
#138 = DIRECTION ( 'NONE',  ( -0.0000000000000000000, -0.0000000000000000000, -1.000000000000000000 ) ) ;
#139 = LINE ( 'NONE', #140, #42 ) ;
#140 = CARTESIAN_POINT ( 'NONE',  ( 0.2500000000000000600, 0.2500000000000000000, 2.143131898507868300E-016 ) ) ;
#141 = DIRECTION ( 'NONE',  ( -0.0000000000000000000, -1.000000000000000000, -0.0000000000000000000 ) ) ;
#142 = LINE ( 'NONE', #143, #39 ) ;
#143 = CARTESIAN_POINT ( 'NONE',  ( 0.2500000000000000600, 0.0000000000000000000, 2.143131898507868300E-016 ) ) ;
#144 = DIRECTION ( 'NONE',  ( 1.000000000000000000, -0.0000000000000000000, 8.572527594031472200E-016 ) ) ;
#145 = LINE ( 'NONE', #146, #43 ) ;
#146 = CARTESIAN_POINT ( 'NONE',  ( 0.0000000000000000000, 0.2500000000000000000, 0.0000000000000000000 ) ) ;
#147 = DIRECTION ( 'NONE',  ( -0.0000000000000000000, -0.0000000000000000000, 1.000000000000000000 ) ) ;
#148 = CARTESIAN_POINT ( 'NONE',  ( 0.2500000000000000600, 0.2500000000000000000, 2.143131898507868300E-016 ) ) ;
#149 = DIRECTION ( 'NONE',  ( 8.572527594031472200E-016, 0.0000000000000000000, -1.000000000000000000 ) ) ;
#150 = DIRECTION ( 'NONE',  ( -1.000000000000000000, 0.0000000000000000000, -8.572527594031472200E-016 ) ) ;
#151 = PLANE ( 'NONE',  #209 ) ;
#152 = CARTESIAN_POINT ( 'NONE',  ( 0.2500000000000000600, 0.2500000000000000000, -0.2499999999999998100 ) ) ;
#153 = DIRECTION ( 'NONE',  ( -1.000000000000000000, 0.0000000000000000000, 0.0000000000000000000 ) ) ;
#154 = DIRECTION ( 'NONE',  ( 0.0000000000000000000, 0.0000000000000000000, 1.000000000000000000 ) ) ;
#155 = PLANE ( 'NONE',  #44 ) ;
#156 = CARTESIAN_POINT ( 'NONE',  ( 0.0000000000000000000, 0.2500000000000000000, 0.0000000000000000000 ) ) ;
#157 = DIRECTION ( 'NONE',  ( 1.000000000000000000, -0.0000000000000000000, 0.0000000000000000000 ) ) ;
#158 = DIRECTION ( 'NONE',  ( 0.0000000000000000000, 0.0000000000000000000, -1.000000000000000000 ) ) ;
#159 = PLANE ( 'NONE',  #41 ) ;
#160 = CARTESIAN_POINT ( 'NONE',  ( 0.0000000000000000000, 0.2500000000000000000, -0.2499999999999998100 ) ) ;
#161 = DIRECTION ( 'NONE',  ( 0.0000000000000000000, 0.0000000000000000000, 1.000000000000000000 ) ) ;
#162 = DIRECTION ( 'NONE',  ( 1.000000000000000000, 0.0000000000000000000, -0.0000000000000000000 ) ) ;
#163 = PLANE ( 'NONE',  #37 ) ;
#164 = CARTESIAN_POINT ( 'NONE',  ( 0.0000000000000000000, 0.2500000000000000000, 0.0000000000000000000 ) ) ;
#165 = DIRECTION ( 'NONE',  ( 0.0000000000000000000, -1.000000000000000000, 0.0000000000000000000 ) ) ;
#166 = DIRECTION ( 'NONE',  ( 0.0000000000000000000, 0.0000000000000000000, -1.000000000000000000 ) ) ;
#167 = LINE ( 'NONE', #168, #5 ) ;
#168 = CARTESIAN_POINT ( 'NONE',  ( 0.0000000000000000000, 0.2500000000000000000, -0.2499999999999998100 ) ) ;
#169 = DIRECTION ( 'NONE',  ( -1.000000000000000000, -0.0000000000000000000, -0.0000000000000000000 ) ) ;
#170 = PLANE ( 'NONE',  #8 ) ;
#171 = CARTESIAN_POINT ( 'NONE',  ( 0.0000000000000000000, 0.0000000000000000000, 0.0000000000000000000 ) ) ;
#172 = DIRECTION ( 'NONE',  ( 0.0000000000000000000, -1.000000000000000000, 0.0000000000000000000 ) ) ;
#173 = DIRECTION ( 'NONE',  ( 0.0000000000000000000, 0.0000000000000000000, -1.000000000000000000 ) ) ;
#174 = LINE ( 'NONE', #175, #7 ) ;
#175 = CARTESIAN_POINT ( 'NONE',  ( 0.0000000000000000000, 0.0000000000000000000, 0.0000000000000000000 ) ) ;
#176 = DIRECTION ( 'NONE',  ( -0.0000000000000000000, -0.0000000000000000000, 1.000000000000000000 ) ) ;
#177 =( LENGTH_UNIT ( ) NAMED_UNIT ( * ) SI_UNIT ( $, .METRE. ) );
#178 =( CONVERSION_BASED_UNIT ( 'INCH', #9 ) LENGTH_UNIT ( ) NAMED_UNIT ( #23 ) );
#179 =( NAMED_UNIT ( * ) PLANE_ANGLE_UNIT ( ) SI_UNIT ( $, .RADIAN. ) );
#180 =( NAMED_UNIT ( * ) SI_UNIT ( $, .STERADIAN. ) SOLID_ANGLE_UNIT ( ) );
#181 = APPLICATION_PROTOCOL_DEFINITION ( 'draft international standard', 'automotive_design', 1998, #112 ) ;
#182 = FILL_AREA_STYLE_COLOUR ( '', #31 ) ;
#183 = FILL_AREA_STYLE ('',( #182 ) ) ;
#184 = SURFACE_STYLE_FILL_AREA ( #183 ) ;
#185 = SURFACE_SIDE_STYLE ('',( #184 ) ) ;
#186 = SURFACE_STYLE_USAGE ( .BOTH. , #185 ) ;
#187 = PRESENTATION_STYLE_ASSIGNMENT (( #186 ) ) ;
#188 =( LENGTH_UNIT ( ) NAMED_UNIT ( * ) SI_UNIT ( $, .METRE. ) );
#189 =( CONVERSION_BASED_UNIT ( 'INCH', #88 ) LENGTH_UNIT ( ) NAMED_UNIT ( #22 ) );
#190 =( NAMED_UNIT ( * ) PLANE_ANGLE_UNIT ( ) SI_UNIT ( $, .RADIAN. ) );
#191 =( NAMED_UNIT ( * ) SI_UNIT ( $, .STERADIAN. ) SOLID_ANGLE_UNIT ( ) );
#192 = CARTESIAN_POINT ( 'NONE',  ( 0.0000000000000000000, 0.0000000000000000000, 0.0000000000000000000 ) ) ;
#193 = DIRECTION ( 'NONE',  ( 0.0000000000000000000, 0.0000000000000000000, 1.000000000000000000 ) ) ;
#194 = DIRECTION ( 'NONE',  ( 1.000000000000000000, 0.0000000000000000000, 0.0000000000000000000 ) ) ;
#195 = SHAPE_DEFINITION_REPRESENTATION ( #24, #30 ) ;
#196 = PRODUCT_CONTEXT ( 'NONE', #112, 'mechanical' ) ;
#197 = APPLICATION_PROTOCOL_DEFINITION ( 'draft international standard', 'automotive_design', 1998, #111 ) ;
#198 = LINE ( 'NONE', #3, #106 ) ;
#199 =( CONVERSION_BASED_UNIT ( 'INCH', #107 ) LENGTH_UNIT ( ) NAMED_UNIT ( #20 ) );
#200 =( NAMED_UNIT ( * ) SI_UNIT ( $, .STERADIAN. ) SOLID_ANGLE_UNIT ( ) );
#201 =( NAMED_UNIT ( * ) PLANE_ANGLE_UNIT ( ) SI_UNIT ( $, .RADIAN. ) );
#202 = VECTOR ( 'NONE', #138, 39.37007874015748100 ) ;
#203 = VECTOR ( 'NONE', #135, 39.37007874015748100 ) ;
#204 = FACE_OUTER_BOUND ( 'NONE', #61, .T. ) ;
#205 = VECTOR ( 'NONE', #115, 39.37007874015748100 ) ;
#206 = VECTOR ( 'NONE', #121, 39.37007874015748100 ) ;
#207 = VECTOR ( 'NONE', #118, 39.37007874015748100 ) ;
#208 = VECTOR ( 'NONE', #131, 39.37007874015748100 ) ;
#209 = AXIS2_PLACEMENT_3D ( 'NONE', #152, #153, #154 ) ;
#210 = PRODUCT_RELATED_PRODUCT_CATEGORY ( 'part', '', ( #21 ) ) ;
#211 = PRODUCT_DEFINITION ( 'UNKNOWN', '', #2, #26 ) ;
ENDSEC;
END-ISO-10303-21;
