ISO-10303-21;
HEADER;
FILE_DESCRIPTION (( 'STEP AP203' ),
    '1' );
FILE_NAME ('C500D.step',
    '2012-03-28T23:04:08',
    ( '' ),
    ( '' ),
    'SwSTEP 2.0',
    'SolidWorks 2012',
    '' );
FILE_SCHEMA (( 'CONFIG_CONTROL_DESIGN' ));
ENDSEC;

DATA;
#1 = PERSON ( 'UNSPECIFIED', 'UNSPECIFIED', 'UNSPECIFIED', ('UNSPECIFIED'), ('UNSPECIFIED'), ('UNSPECIFIED') ) ;
#2 = UNCERTAINTY_MEASURE_WITH_UNIT (LENGTH_MEASURE( 1.000000000000000100E-005 ), #47, 'distance_accuracy_value', 'NONE');
#3 = ADVANCED_BREP_SHAPE_REPRESENTATION ( 'C500D', ( #60, #77 ), #4 ) ;
#4 =( GEOMETRIC_REPRESENTATION_CONTEXT ( 3 ) GLOBAL_UNCERTAINTY_ASSIGNED_CONTEXT ( ( #2 ) ) GLOBAL_UNIT_ASSIGNED_CONTEXT ( ( #47, #46, #45 ) ) REPRESENTATION_CONTEXT ( 'NONE', 'WORKASPACE' ) );
#5 = CARTESIAN_POINT ( 'NONE',  ( 0.0000000000000000000, 0.0000000000000000000, -0.5000000000000000000 ) ) ;
#6 = DIRECTION ( 'NONE',  ( -3.061616997868381800E-017, 0.0000000000000000000, -1.000000000000000000 ) ) ;
#7 = DIRECTION ( 'NONE',  ( -1.000000000000000000, 0.0000000000000000000, 3.061616997868381800E-017 ) ) ;
#8 = APPROVAL_DATE_TIME ( #9, #106 ) ;
#9 = DATE_AND_TIME ( #95, #105 ) ;
#10 = APPROVAL_ROLE ( '' ) ;
#11 = APPROVAL_STATUS ( 'not_yet_approved' ) ;
#12 = PERSON_AND_ORGANIZATION ( #1, #78 ) ;
#13 = DATE_TIME_ROLE ( 'classification_date' ) ;
#14 = DATE_AND_TIME ( #92, #108 ) ;
#15 = PERSON_AND_ORGANIZATION_ROLE ( 'classification_officer' ) ;
#16 = PERSON_AND_ORGANIZATION ( #1, #78 ) ;
#17 = SECURITY_CLASSIFICATION_LEVEL ( 'unclassified' ) ;
#18 = PERSON_AND_ORGANIZATION_ROLE ( 'design_supplier' ) ;
#19 = PERSON_AND_ORGANIZATION ( #1, #78 ) ;
#20 = PERSON_AND_ORGANIZATION_ROLE ( 'creator' ) ;
#21 = PERSON_AND_ORGANIZATION ( #1, #78 ) ;
#22 = APPROVAL_DATE_TIME ( #23, #117 ) ;
#23 = DATE_AND_TIME ( #88, #116 ) ;
#24 = APPROVAL_ROLE ( '' ) ;
#25 = APPROVAL_STATUS ( 'not_yet_approved' ) ;
#26 = PERSON_AND_ORGANIZATION ( #1, #78 ) ;
#27 = DATE_TIME_ROLE ( 'creation_date' ) ;
#28 = DATE_AND_TIME ( #84, #119 ) ;
#29 = PERSON_AND_ORGANIZATION_ROLE ( 'creator' ) ;
#30 = PERSON_AND_ORGANIZATION ( #1, #78 ) ;
#31 = APPROVAL_DATE_TIME ( #32, #122 ) ;
#32 = DATE_AND_TIME ( #81, #121 ) ;
#33 = APPROVAL_ROLE ( '' ) ;
#34 = APPROVAL_STATUS ( 'not_yet_approved' ) ;
#35 = PERSON_AND_ORGANIZATION ( #1, #78 ) ;
#36 = APPLICATION_PROTOCOL_DEFINITION ( 'international standard', 'config_control_design', 1994, #133 ) ;
#37 = PERSON_AND_ORGANIZATION_ROLE ( 'design_owner' ) ;
#38 = PERSON_AND_ORGANIZATION ( #1, #78 ) ;
#39 = MECHANICAL_CONTEXT ( 'NONE', #134, 'mechanical' ) ;
#40 = SHAPE_DEFINITION_REPRESENTATION ( #59, #3 ) ;
#41 = DIRECTION ( 'NONE',  ( 1.000000000000000000, 0.0000000000000000000, 0.0000000000000000000 ) ) ;
#42 = DIRECTION ( 'NONE',  ( 0.0000000000000000000, 0.0000000000000000000, 1.000000000000000000 ) ) ;
#43 = CARTESIAN_POINT ( 'NONE',  ( 0.0000000000000000000, 0.0000000000000000000, 0.0000000000000000000 ) ) ;
#44 = APPLICATION_PROTOCOL_DEFINITION ( 'international standard', 'config_control_design', 1994, #134 ) ;
#45 =( NAMED_UNIT ( * ) SI_UNIT ( $, .STERADIAN. ) SOLID_ANGLE_UNIT ( ) );
#46 =( NAMED_UNIT ( * ) PLANE_ANGLE_UNIT ( ) SI_UNIT ( $, .RADIAN. ) );
#47 =( CONVERSION_BASED_UNIT ( 'INCH', #71 ) LENGTH_UNIT ( ) NAMED_UNIT ( #56 ) );
#48 =( LENGTH_UNIT ( ) NAMED_UNIT ( * ) SI_UNIT ( $, .METRE. ) );
#49 = CARTESIAN_POINT ( 'NONE',  ( 0.0000000000000000000, 0.5000000000000000000, -0.5000000000000000000 ) ) ;
#50 = CARTESIAN_POINT ( 'NONE',  ( 0.4999999999999998300, 0.0000000000000000000, -0.5000000000000000000 ) ) ;
#51 = CARTESIAN_POINT ( 'NONE',  ( 0.5000000000000000000, 0.5000000000000000000, -1.530808498934190900E-017 ) ) ;
#52 = CARTESIAN_POINT ( 'NONE',  ( 0.4999999999999998300, 0.5000000000000000000, -0.5000000000000000000 ) ) ;
#53 = CARTESIAN_POINT ( 'NONE',  ( 0.0000000000000000000, 0.5000000000000000000, 0.0000000000000000000 ) ) ;
#54 = CARTESIAN_POINT ( 'NONE',  ( 0.5000000000000000000, 0.0000000000000000000, -1.530808498934190900E-017 ) ) ;
#55 = CARTESIAN_POINT ( 'NONE',  ( 0.0000000000000000000, 0.0000000000000000000, 0.0000000000000000000 ) ) ;
#56 = DIMENSIONAL_EXPONENTS ( 1.000000000000000000, 0.0000000000000000000, 0.0000000000000000000, 0.0000000000000000000, 0.0000000000000000000, 0.0000000000000000000, 0.0000000000000000000 ) ;
#57 = PRODUCT ( 'C500D', 'C500D', '', ( #39 ) ) ;
#58 = DESIGN_CONTEXT ( 'detailed design', #133, 'design' ) ;
#59 = PRODUCT_DEFINITION_SHAPE ( 'NONE', 'NONE',  #123 ) ;
#60 = MANIFOLD_SOLID_BREP ( 'Boss-Extrude1', #141 ) ;
#61 = VECTOR ( 'NONE', #186, 39.37007874015748100 ) ;
#62 = AXIS2_PLACEMENT_3D ( 'NONE', #177, #176, #175 ) ;
#63 = VECTOR ( 'NONE', #182, 39.37007874015748100 ) ;
#64 = AXIS2_PLACEMENT_3D ( 'NONE', #181, #180, #179 ) ;
#65 = FACE_OUTER_BOUND ( 'NONE', #221, .T. ) ;
#66 = FACE_OUTER_BOUND ( 'NONE', #224, .T. ) ;
#67 = AXIS2_PLACEMENT_3D ( 'NONE', #145, #6, #7 ) ;
#68 = VECTOR ( 'NONE', #172, 39.37007874015748100 ) ;
#69 = VECTOR ( 'NONE', #168, 39.37007874015748100 ) ;
#70 = VECTOR ( 'NONE', #163, 39.37007874015748100 ) ;
#71 = LENGTH_MEASURE_WITH_UNIT ( LENGTH_MEASURE( 0.02539999999999999900 ), #48 );
#72 = VECTOR ( 'NONE', #160, 39.37007874015748100 ) ;
#73 = VECTOR ( 'NONE', #155, 39.37007874015748100 ) ;
#74 = VECTOR ( 'NONE', #152, 39.37007874015748100 ) ;
#75 = VECTOR ( 'NONE', #149, 39.37007874015748100 ) ;
#76 = VECTOR ( 'NONE', #146, 39.37007874015748100 ) ;
#77 = AXIS2_PLACEMENT_3D ( 'NONE', #43, #42, #41 ) ;
#78 = ORGANIZATION ( 'UNSPECIFIED', 'UNSPECIFIED', '' ) ;
#79 = APPROVAL_PERSON_ORGANIZATION ( #35, #122, #33 ) ;
#80 = COORDINATED_UNIVERSAL_TIME_OFFSET ( 8, 0, .BEHIND. ) ;
#81 = CALENDAR_DATE ( 2012, 28, 3 ) ;
#82 = CC_DESIGN_APPROVAL ( #122, ( #123 ) ) ;
#83 = COORDINATED_UNIVERSAL_TIME_OFFSET ( 8, 0, .BEHIND. ) ;
#84 = CALENDAR_DATE ( 2012, 28, 3 ) ;
#85 = PRODUCT_DEFINITION_FORMATION_WITH_SPECIFIED_SOURCE ( 'ANY', '', #57, .NOT_KNOWN. ) ;
#86 = APPROVAL_PERSON_ORGANIZATION ( #26, #117, #24 ) ;
#87 = COORDINATED_UNIVERSAL_TIME_OFFSET ( 8, 0, .BEHIND. ) ;
#88 = CALENDAR_DATE ( 2012, 28, 3 ) ;
#89 = CC_DESIGN_APPROVAL ( #117, ( #85 ) ) ;
#90 = SECURITY_CLASSIFICATION ( '', '', #17 ) ;
#91 = COORDINATED_UNIVERSAL_TIME_OFFSET ( 8, 0, .BEHIND. ) ;
#92 = CALENDAR_DATE ( 2012, 28, 3 ) ;
#93 = APPROVAL_PERSON_ORGANIZATION ( #12, #106, #10 ) ;
#94 = COORDINATED_UNIVERSAL_TIME_OFFSET ( 8, 0, .BEHIND. ) ;
#95 = CALENDAR_DATE ( 2012, 28, 3 ) ;
#96 = CC_DESIGN_APPROVAL ( #106, ( #90 ) ) ;
#97 = CC_DESIGN_SECURITY_CLASSIFICATION ( #90, ( #85 ) ) ;
#98 = ADVANCED_FACE ( 'NONE', ( #144 ), #206, .F. ) ;
#99 = EDGE_CURVE ( 'NONE', #228, #226, #202, .T. ) ;
#100 = EDGE_CURVE ( 'NONE', #226, #227, #198, .T. ) ;
#101 = ADVANCED_FACE ( 'NONE', ( #136 ), #199, .F. ) ;
#102 = ADVANCED_FACE ( 'NONE', ( #137 ), #192, .F. ) ;
#103 = EDGE_CURVE ( 'NONE', #230, #227, #188, .T. ) ;
#104 = PRODUCT_RELATED_PRODUCT_CATEGORY ( 'detail', '', ( #57 ) ) ;
#105 = LOCAL_TIME ( 16, 4, 8.000000000000000000, #94 ) ;
#106 = APPROVAL ( #11, 'UNSPECIFIED' ) ;
#107 = CC_DESIGN_DATE_AND_TIME_ASSIGNMENT ( #14, #13, ( #90 ) ) ;
#108 = LOCAL_TIME ( 16, 4, 8.000000000000000000, #91 ) ;
#109 = CC_DESIGN_PERSON_AND_ORGANIZATION_ASSIGNMENT ( #16, #15, ( #90 ) ) ;
#110 = EDGE_CURVE ( 'NONE', #225, #226, #184, .T. ) ;
#111 = ADVANCED_FACE ( 'NONE', ( #140 ), #185, .F. ) ;
#112 = CC_DESIGN_PERSON_AND_ORGANIZATION_ASSIGNMENT ( #19, #18, ( #85 ) ) ;
#113 = ADVANCED_FACE ( 'NONE', ( #66 ), #178, .T. ) ;
#114 = EDGE_CURVE ( 'NONE', #232, #225, #174, .T. ) ;
#115 = CC_DESIGN_PERSON_AND_ORGANIZATION_ASSIGNMENT ( #21, #20, ( #85 ) ) ;
#116 = LOCAL_TIME ( 16, 4, 8.000000000000000000, #87 ) ;
#117 = APPROVAL ( #25, 'UNSPECIFIED' ) ;
#118 = CC_DESIGN_DATE_AND_TIME_ASSIGNMENT ( #28, #27, ( #123 ) ) ;
#119 = LOCAL_TIME ( 16, 4, 8.000000000000000000, #83 ) ;
#120 = CC_DESIGN_PERSON_AND_ORGANIZATION_ASSIGNMENT ( #30, #29, ( #123 ) ) ;
#121 = LOCAL_TIME ( 16, 4, 8.000000000000000000, #80 ) ;
#122 = APPROVAL ( #34, 'UNSPECIFIED' ) ;
#123 = PRODUCT_DEFINITION ( 'UNKNOWN', '', #85, #58 ) ;
#124 = EDGE_CURVE ( 'NONE', #227, #231, #170, .T. ) ;
#125 = EDGE_CURVE ( 'NONE', #229, #232, #165, .T. ) ;
#126 = EDGE_CURVE ( 'NONE', #231, #225, #162, .T. ) ;
#127 = EDGE_CURVE ( 'NONE', #230, #229, #158, .T. ) ;
#128 = EDGE_CURVE ( 'NONE', #229, #231, #154, .T. ) ;
#129 = EDGE_CURVE ( 'NONE', #228, #230, #151, .T. ) ;
#130 = EDGE_CURVE ( 'NONE', #232, #228, #148, .T. ) ;
#131 = CC_DESIGN_PERSON_AND_ORGANIZATION_ASSIGNMENT ( #38, #37, ( #57 ) ) ;
#132 = ADVANCED_FACE ( 'NONE', ( #65 ), #171, .F. ) ;
#133 = APPLICATION_CONTEXT ( 'configuration controlled 3d designs of mechanical parts and assemblies' ) ;
#134 = APPLICATION_CONTEXT ( 'configuration controlled 3d designs of mechanical parts and assemblies' ) ;
#135 = VECTOR ( 'NONE', #200, 39.37007874015748100 ) ;
#136 = FACE_OUTER_BOUND ( 'NONE', #219, .T. ) ;
#137 = FACE_OUTER_BOUND ( 'NONE', #220, .T. ) ;
#138 = AXIS2_PLACEMENT_3D ( 'NONE', #191, #190, #189 ) ;
#139 = VECTOR ( 'NONE', #196, 39.37007874015748100 ) ;
#140 = FACE_OUTER_BOUND ( 'NONE', #223, .T. ) ;
#141 = CLOSED_SHELL ( 'NONE', ( #132, #101, #102, #98, #111, #113 ) ) ;
#142 = AXIS2_PLACEMENT_3D ( 'NONE', #195, #194, #193 ) ;
#143 = AXIS2_PLACEMENT_3D ( 'NONE', #205, #204, #203 ) ;
#144 = FACE_OUTER_BOUND ( 'NONE', #222, .T. ) ;
#145 = CARTESIAN_POINT ( 'NONE',  ( 0.5000000000000000000, 0.5000000000000000000, -1.530808498934190900E-017 ) ) ;
#146 = DIRECTION ( 'NONE',  ( -0.0000000000000000000, -0.0000000000000000000, 1.000000000000000000 ) ) ;
#147 = CARTESIAN_POINT ( 'NONE',  ( 0.0000000000000000000, 0.5000000000000000000, 0.0000000000000000000 ) ) ;
#148 = LINE ( 'NONE', #147, #76 ) ;
#149 = DIRECTION ( 'NONE',  ( 1.000000000000000000, -0.0000000000000000000, -3.061616997868381800E-017 ) ) ;
#150 = CARTESIAN_POINT ( 'NONE',  ( 0.5000000000000000000, 0.5000000000000000000, -1.530808498934190900E-017 ) ) ;
#151 = LINE ( 'NONE', #150, #75 ) ;
#152 = DIRECTION ( 'NONE',  ( -0.0000000000000000000, -1.000000000000000000, -0.0000000000000000000 ) ) ;
#153 = CARTESIAN_POINT ( 'NONE',  ( 0.4999999999999998300, 0.5000000000000000000, -0.5000000000000000000 ) ) ;
#154 = LINE ( 'NONE', #153, #74 ) ;
#155 = DIRECTION ( 'NONE',  ( -2.731847993664263200E-016, -0.0000000000000000000, -1.000000000000000000 ) ) ;
#156 = ORIENTED_EDGE ( 'NONE', *, *, #130, .T. ) ;
#157 = CARTESIAN_POINT ( 'NONE',  ( 0.4999999999999998300, 0.5000000000000000000, -0.5000000000000000000 ) ) ;
#158 = LINE ( 'NONE', #157, #73 ) ;
#159 = ORIENTED_EDGE ( 'NONE', *, *, #99, .F. ) ;
#160 = DIRECTION ( 'NONE',  ( -1.000000000000000000, -0.0000000000000000000, -0.0000000000000000000 ) ) ;
#161 = CARTESIAN_POINT ( 'NONE',  ( 0.0000000000000000000, 0.0000000000000000000, -0.5000000000000000000 ) ) ;
#162 = LINE ( 'NONE', #161, #72 ) ;
#163 = DIRECTION ( 'NONE',  ( -1.000000000000000000, -0.0000000000000000000, -0.0000000000000000000 ) ) ;
#164 = CARTESIAN_POINT ( 'NONE',  ( 0.0000000000000000000, 0.5000000000000000000, -0.5000000000000000000 ) ) ;
#165 = LINE ( 'NONE', #164, #70 ) ;
#166 = ORIENTED_EDGE ( 'NONE', *, *, #110, .T. ) ;
#167 = ORIENTED_EDGE ( 'NONE', *, *, #126, .F. ) ;
#168 = DIRECTION ( 'NONE',  ( -2.731847993664263200E-016, -0.0000000000000000000, -1.000000000000000000 ) ) ;
#169 = CARTESIAN_POINT ( 'NONE',  ( 0.4999999999999998300, 0.0000000000000000000, -0.5000000000000000000 ) ) ;
#170 = LINE ( 'NONE', #169, #69 ) ;
#171 = PLANE ( 'NONE',  #67 ) ;
#172 = DIRECTION ( 'NONE',  ( -0.0000000000000000000, -1.000000000000000000, -0.0000000000000000000 ) ) ;
#173 = CARTESIAN_POINT ( 'NONE',  ( 0.0000000000000000000, 0.5000000000000000000, -0.5000000000000000000 ) ) ;
#174 = LINE ( 'NONE', #173, #68 ) ;
#175 = DIRECTION ( 'NONE',  ( 0.0000000000000000000, 0.0000000000000000000, -1.000000000000000000 ) ) ;
#176 = DIRECTION ( 'NONE',  ( 0.0000000000000000000, -1.000000000000000000, -0.0000000000000000000 ) ) ;
#177 = CARTESIAN_POINT ( 'NONE',  ( 0.0000000000000000000, 0.0000000000000000000, 0.0000000000000000000 ) ) ;
#178 = PLANE ( 'NONE',  #62 ) ;
#179 = DIRECTION ( 'NONE',  ( 0.0000000000000000000, 0.0000000000000000000, -1.000000000000000000 ) ) ;
#180 = DIRECTION ( 'NONE',  ( 0.0000000000000000000, -1.000000000000000000, -0.0000000000000000000 ) ) ;
#181 = CARTESIAN_POINT ( 'NONE',  ( 0.0000000000000000000, 0.5000000000000000000, 0.0000000000000000000 ) ) ;
#182 = DIRECTION ( 'NONE',  ( -0.0000000000000000000, -0.0000000000000000000, 1.000000000000000000 ) ) ;
#183 = CARTESIAN_POINT ( 'NONE',  ( 0.0000000000000000000, 0.0000000000000000000, 0.0000000000000000000 ) ) ;
#184 = LINE ( 'NONE', #183, #63 ) ;
#185 = PLANE ( 'NONE',  #64 ) ;
#186 = DIRECTION ( 'NONE',  ( -0.0000000000000000000, -1.000000000000000000, -0.0000000000000000000 ) ) ;
#187 = CARTESIAN_POINT ( 'NONE',  ( 0.5000000000000000000, 0.5000000000000000000, -1.530808498934190900E-017 ) ) ;
#188 = LINE ( 'NONE', #187, #61 ) ;
#189 = DIRECTION ( 'NONE',  ( 1.000000000000000000, 0.0000000000000000000, -0.0000000000000000000 ) ) ;
#190 = DIRECTION ( 'NONE',  ( 0.0000000000000000000, 0.0000000000000000000, 1.000000000000000000 ) ) ;
#191 = CARTESIAN_POINT ( 'NONE',  ( 0.0000000000000000000, 0.5000000000000000000, -0.5000000000000000000 ) ) ;
#192 = PLANE ( 'NONE',  #138 ) ;
#193 = DIRECTION ( 'NONE',  ( 2.731847993664263200E-016, 0.0000000000000000000, 1.000000000000000000 ) ) ;
#194 = DIRECTION ( 'NONE',  ( -1.000000000000000000, 0.0000000000000000000, 2.731847993664263200E-016 ) ) ;
#195 = CARTESIAN_POINT ( 'NONE',  ( 0.4999999999999998300, 0.5000000000000000000, -0.5000000000000000000 ) ) ;
#196 = DIRECTION ( 'NONE',  ( 1.000000000000000000, -0.0000000000000000000, -3.061616997868381800E-017 ) ) ;
#197 = CARTESIAN_POINT ( 'NONE',  ( 0.5000000000000000000, 0.0000000000000000000, -1.530808498934190900E-017 ) ) ;
#198 = LINE ( 'NONE', #197, #139 ) ;
#199 = PLANE ( 'NONE',  #142 ) ;
#200 = DIRECTION ( 'NONE',  ( -0.0000000000000000000, -1.000000000000000000, -0.0000000000000000000 ) ) ;
#201 = CARTESIAN_POINT ( 'NONE',  ( 0.0000000000000000000, 0.5000000000000000000, 0.0000000000000000000 ) ) ;
#202 = LINE ( 'NONE', #201, #135 ) ;
#203 = DIRECTION ( 'NONE',  ( 0.0000000000000000000, 0.0000000000000000000, -1.000000000000000000 ) ) ;
#204 = DIRECTION ( 'NONE',  ( 1.000000000000000000, -0.0000000000000000000, 0.0000000000000000000 ) ) ;
#205 = CARTESIAN_POINT ( 'NONE',  ( 0.0000000000000000000, 0.5000000000000000000, 0.0000000000000000000 ) ) ;
#206 = PLANE ( 'NONE',  #143 ) ;
#207 = ORIENTED_EDGE ( 'NONE', *, *, #124, .T. ) ;
#208 = ORIENTED_EDGE ( 'NONE', *, *, #99, .T. ) ;
#209 = ORIENTED_EDGE ( 'NONE', *, *, #103, .F. ) ;
#210 = ORIENTED_EDGE ( 'NONE', *, *, #129, .F. ) ;
#211 = ORIENTED_EDGE ( 'NONE', *, *, #130, .F. ) ;
#212 = ORIENTED_EDGE ( 'NONE', *, *, #128, .T. ) ;
#213 = ORIENTED_EDGE ( 'NONE', *, *, #114, .F. ) ;
#214 = ORIENTED_EDGE ( 'NONE', *, *, #125, .F. ) ;
#215 = ORIENTED_EDGE ( 'NONE', *, *, #126, .T. ) ;
#216 = ORIENTED_EDGE ( 'NONE', *, *, #103, .T. ) ;
#217 = ORIENTED_EDGE ( 'NONE', *, *, #128, .F. ) ;
#218 = ORIENTED_EDGE ( 'NONE', *, *, #127, .F. ) ;
#219 = EDGE_LOOP ( 'NONE', ( #207, #217, #218, #216 ) ) ;
#220 = EDGE_LOOP ( 'NONE', ( #215, #213, #214, #212 ) ) ;
#221 = EDGE_LOOP ( 'NONE', ( #233, #209, #210, #208 ) ) ;
#222 = EDGE_LOOP ( 'NONE', ( #166, #159, #211, #240 ) ) ;
#223 = EDGE_LOOP ( 'NONE', ( #239, #238, #237, #156 ) ) ;
#224 = EDGE_LOOP ( 'NONE', ( #235, #234, #167, #236 ) ) ;
#225 = VERTEX_POINT ( 'NONE', #5 ) ;
#226 = VERTEX_POINT ( 'NONE', #55 ) ;
#227 = VERTEX_POINT ( 'NONE', #54 ) ;
#228 = VERTEX_POINT ( 'NONE', #53 ) ;
#229 = VERTEX_POINT ( 'NONE', #52 ) ;
#230 = VERTEX_POINT ( 'NONE', #51 ) ;
#231 = VERTEX_POINT ( 'NONE', #50 ) ;
#232 = VERTEX_POINT ( 'NONE', #49 ) ;
#233 = ORIENTED_EDGE ( 'NONE', *, *, #100, .T. ) ;
#234 = ORIENTED_EDGE ( 'NONE', *, *, #110, .F. ) ;
#235 = ORIENTED_EDGE ( 'NONE', *, *, #100, .F. ) ;
#236 = ORIENTED_EDGE ( 'NONE', *, *, #124, .F. ) ;
#237 = ORIENTED_EDGE ( 'NONE', *, *, #125, .T. ) ;
#238 = ORIENTED_EDGE ( 'NONE', *, *, #127, .T. ) ;
#239 = ORIENTED_EDGE ( 'NONE', *, *, #129, .T. ) ;
#240 = ORIENTED_EDGE ( 'NONE', *, *, #114, .T. ) ;
ENDSEC;
END-ISO-10303-21;
