ISO-10303-21;
HEADER;
FILE_DESCRIPTION (( 'STEP AP214' ),
    '1' );
FILE_NAME ('C500D.step',
    '2012-04-20T20:47:05',
    ( '' ),
    ( '' ),
    'SwSTEP 2.0',
    'SolidWorks 2012',
    '' );
FILE_SCHEMA (( 'AUTOMOTIVE_DESIGN' ));
ENDSEC;

DATA;
#1 = EDGE_CURVE ( 'NONE', #140, #147, #135, .T. ) ;
#2 = EDGE_CURVE ( 'NONE', #149, #138, #131, .T. ) ;
#3 = EDGE_CURVE ( 'NONE', #148, #136, #128, .T. ) ;
#4 = EDGE_CURVE ( 'NONE', #147, #149, #125, .T. ) ;
#5 = EDGE_CURVE ( 'NONE', #139, #148, #122, .T. ) ;
#6 = EDGE_CURVE ( 'NONE', #137, #139, #119, .T. ) ;
#7 = EDGE_CURVE ( 'NONE', #136, #137, #116, .T. ) ;
#8 = EDGE_CURVE ( 'NONE', #138, #136, #113, .T. ) ;
#9 = EDGE_CURVE ( 'NONE', #138, #140, #110, .T. ) ;
#10 = EDGE_CURVE ( 'NONE', #147, #139, #107, .T. ) ;
#11 = EDGE_CURVE ( 'NONE', #149, #148, #104, .T. ) ;
#12 = PRODUCT_DEFINITION_FORMATION_WITH_SPECIFIED_SOURCE ( 'ANY', '', #198, .NOT_KNOWN. ) ;
#13 = AXIS2_PLACEMENT_3D ( 'NONE', #65, #64, #63 ) ;
#14 = FACE_OUTER_BOUND ( 'NONE', #144, .T. ) ;
#15 = LENGTH_MEASURE_WITH_UNIT ( LENGTH_MEASURE( 0.02539999999999999900 ), #54 );
#16 = MECHANICAL_DESIGN_GEOMETRIC_PRESENTATION_REPRESENTATION (  '', ( #19 ), #24 ) ;
#17 = PRESENTATION_LAYER_ASSIGNMENT (  '', '', ( #19 ) ) ;
#18 = AXIS2_PLACEMENT_3D ( 'NONE', #57, #56, #55 ) ;
#19 = STYLED_ITEM ( 'NONE', ( #41 ), #186 ) ;
#20 = LENGTH_MEASURE_WITH_UNIT ( LENGTH_MEASURE( 0.02539999999999999900 ), #40 );
#21 = AXIS2_PLACEMENT_3D ( 'NONE', #34, #35, #36 ) ;
#22 =( GEOMETRIC_REPRESENTATION_CONTEXT ( 3 ) GLOBAL_UNCERTAINTY_ASSIGNED_CONTEXT ( ( #188 ) ) GLOBAL_UNIT_ASSIGNED_CONTEXT ( ( #83, #82, #81 ) ) REPRESENTATION_CONTEXT ( 'NONE', 'WORKASPACE' ) );
#23 =( GEOMETRIC_REPRESENTATION_CONTEXT ( 3 ) GLOBAL_UNCERTAINTY_ASSIGNED_CONTEXT ( ( #189 ) ) GLOBAL_UNIT_ASSIGNED_CONTEXT ( ( #53, #52, #51 ) ) REPRESENTATION_CONTEXT ( 'NONE', 'WORKASPACE' ) );
#24 =( GEOMETRIC_REPRESENTATION_CONTEXT ( 3 ) GLOBAL_UNCERTAINTY_ASSIGNED_CONTEXT ( ( #187 ) ) GLOBAL_UNIT_ASSIGNED_CONTEXT ( ( #39, #38, #37 ) ) REPRESENTATION_CONTEXT ( 'NONE', 'WORKASPACE' ) );
#25 = ORIENTED_EDGE ( 'NONE', *, *, #11, .F. ) ;
#26 = ORIENTED_EDGE ( 'NONE', *, *, #4, .F. ) ;
#27 = ORIENTED_EDGE ( 'NONE', *, *, #5, .T. ) ;
#28 = APPLICATION_PROTOCOL_DEFINITION ( 'draft international standard', 'automotive_design', 1998, #157 ) ;
#29 = PRODUCT_CONTEXT ( 'NONE', #158, 'mechanical' ) ;
#30 = ORIENTED_EDGE ( 'NONE', *, *, #3, .T. ) ;
#31 = ORIENTED_EDGE ( 'NONE', *, *, #2, .F. ) ;
#32 = SHAPE_DEFINITION_REPRESENTATION ( #204, #186 ) ;
#33 = ORIENTED_EDGE ( 'NONE', *, *, #10, .T. ) ;
#34 = CARTESIAN_POINT ( 'NONE',  ( 0.0000000000000000000, 0.0000000000000000000, 0.0000000000000000000 ) ) ;
#35 = DIRECTION ( 'NONE',  ( 0.0000000000000000000, 0.0000000000000000000, 1.000000000000000000 ) ) ;
#36 = DIRECTION ( 'NONE',  ( 1.000000000000000000, 0.0000000000000000000, 0.0000000000000000000 ) ) ;
#37 =( NAMED_UNIT ( * ) SI_UNIT ( $, .STERADIAN. ) SOLID_ANGLE_UNIT ( ) );
#38 =( NAMED_UNIT ( * ) PLANE_ANGLE_UNIT ( ) SI_UNIT ( $, .RADIAN. ) );
#39 =( CONVERSION_BASED_UNIT ( 'INCH', #20 ) LENGTH_UNIT ( ) NAMED_UNIT ( #199 ) );
#40 =( LENGTH_UNIT ( ) NAMED_UNIT ( * ) SI_UNIT ( $, .METRE. ) );
#41 = PRESENTATION_STYLE_ASSIGNMENT (( #42 ) ) ;
#42 = SURFACE_STYLE_USAGE ( .BOTH. , #43 ) ;
#43 = SURFACE_SIDE_STYLE ('',( #44 ) ) ;
#44 = SURFACE_STYLE_FILL_AREA ( #45 ) ;
#45 = FILL_AREA_STYLE ('',( #46 ) ) ;
#46 = FILL_AREA_STYLE_COLOUR ( '', #197 ) ;
#47 = APPLICATION_PROTOCOL_DEFINITION ( 'draft international standard', 'automotive_design', 1998, #158 ) ;
#48 = ORIENTED_EDGE ( 'NONE', *, *, #1, .F. ) ;
#49 = ORIENTED_EDGE ( 'NONE', *, *, #10, .F. ) ;
#50 = ORIENTED_EDGE ( 'NONE', *, *, #164, .T. ) ;
#51 =( NAMED_UNIT ( * ) SI_UNIT ( $, .STERADIAN. ) SOLID_ANGLE_UNIT ( ) );
#52 =( NAMED_UNIT ( * ) PLANE_ANGLE_UNIT ( ) SI_UNIT ( $, .RADIAN. ) );
#53 =( CONVERSION_BASED_UNIT ( 'INCH', #15 ) LENGTH_UNIT ( ) NAMED_UNIT ( #201 ) );
#54 =( LENGTH_UNIT ( ) NAMED_UNIT ( * ) SI_UNIT ( $, .METRE. ) );
#55 = DIRECTION ( 'NONE',  ( 0.0000000000000000000, 0.0000000000000000000, -1.000000000000000000 ) ) ;
#56 = DIRECTION ( 'NONE',  ( 0.0000000000000000000, -1.000000000000000000, -0.0000000000000000000 ) ) ;
#57 = CARTESIAN_POINT ( 'NONE',  ( 0.0000000000000000000, 0.5000000000000000000, 0.0000000000000000000 ) ) ;
#58 = PLANE ( 'NONE',  #18 ) ;
#59 = DIRECTION ( 'NONE',  ( 0.0000000000000000000, 0.0000000000000000000, -1.000000000000000000 ) ) ;
#60 = DIRECTION ( 'NONE',  ( 1.000000000000000000, -0.0000000000000000000, 0.0000000000000000000 ) ) ;
#61 = CARTESIAN_POINT ( 'NONE',  ( 0.0000000000000000000, 0.5000000000000000000, 0.0000000000000000000 ) ) ;
#62 = PLANE ( 'NONE',  #167 ) ;
#63 = DIRECTION ( 'NONE',  ( -1.000000000000000000, 0.0000000000000000000, 3.061616997868381800E-017 ) ) ;
#64 = DIRECTION ( 'NONE',  ( -3.061616997868381800E-017, 0.0000000000000000000, -1.000000000000000000 ) ) ;
#65 = CARTESIAN_POINT ( 'NONE',  ( 0.5000000000000000000, 0.5000000000000000000, -1.530808498934190900E-017 ) ) ;
#66 = PLANE ( 'NONE',  #13 ) ;
#67 = DIRECTION ( 'NONE',  ( 0.0000000000000000000, 0.0000000000000000000, -1.000000000000000000 ) ) ;
#68 = DIRECTION ( 'NONE',  ( 0.0000000000000000000, -1.000000000000000000, -0.0000000000000000000 ) ) ;
#69 = CARTESIAN_POINT ( 'NONE',  ( 0.0000000000000000000, 0.0000000000000000000, 0.0000000000000000000 ) ) ;
#70 = PLANE ( 'NONE',  #175 ) ;
#71 = DIRECTION ( 'NONE',  ( 1.000000000000000000, 0.0000000000000000000, -0.0000000000000000000 ) ) ;
#72 = ORIENTED_EDGE ( 'NONE', *, *, #11, .T. ) ;
#73 = ORIENTED_EDGE ( 'NONE', *, *, #2, .T. ) ;
#74 = ORIENTED_EDGE ( 'NONE', *, *, #8, .F. ) ;
#75 = PLANE ( 'NONE',  #169 ) ;
#76 = CARTESIAN_POINT ( 'NONE',  ( 0.0000000000000000000, 0.5000000000000000000, -0.5000000000000000000 ) ) ;
#77 = DIRECTION ( 'NONE',  ( 0.0000000000000000000, 0.0000000000000000000, 1.000000000000000000 ) ) ;
#78 = CARTESIAN_POINT ( 'NONE',  ( 0.4999999999999998300, 0.5000000000000000000, -0.5000000000000000000 ) ) ;
#79 = DIRECTION ( 'NONE',  ( -1.000000000000000000, 0.0000000000000000000, 2.731847993664263200E-016 ) ) ;
#80 = DIRECTION ( 'NONE',  ( 2.731847993664263200E-016, 0.0000000000000000000, 1.000000000000000000 ) ) ;
#81 =( NAMED_UNIT ( * ) SI_UNIT ( $, .STERADIAN. ) SOLID_ANGLE_UNIT ( ) );
#82 =( NAMED_UNIT ( * ) PLANE_ANGLE_UNIT ( ) SI_UNIT ( $, .RADIAN. ) );
#83 =( CONVERSION_BASED_UNIT ( 'INCH', #171 ) LENGTH_UNIT ( ) NAMED_UNIT ( #200 ) );
#84 =( LENGTH_UNIT ( ) NAMED_UNIT ( * ) SI_UNIT ( $, .METRE. ) );
#85 = PRESENTATION_STYLE_ASSIGNMENT (( #86 ) ) ;
#86 = SURFACE_STYLE_USAGE ( .BOTH. , #87 ) ;
#87 = SURFACE_SIDE_STYLE ('',( #88 ) ) ;
#88 = SURFACE_STYLE_FILL_AREA ( #89 ) ;
#89 = FILL_AREA_STYLE ('',( #90 ) ) ;
#90 = FILL_AREA_STYLE_COLOUR ( '', #211 ) ;
#91 = PLANE ( 'NONE',  #178 ) ;
#92 = DIRECTION ( 'NONE',  ( -0.0000000000000000000, -1.000000000000000000, -0.0000000000000000000 ) ) ;
#93 = CARTESIAN_POINT ( 'NONE',  ( 0.5000000000000000000, 0.5000000000000000000, -1.530808498934190900E-017 ) ) ;
#94 = LINE ( 'NONE', #93, #177 ) ;
#95 = CARTESIAN_POINT ( 'NONE',  ( 0.0000000000000000000, 0.5000000000000000000, -0.5000000000000000000 ) ) ;
#96 = CARTESIAN_POINT ( 'NONE',  ( 0.0000000000000000000, 0.0000000000000000000, -0.5000000000000000000 ) ) ;
#97 = CARTESIAN_POINT ( 'NONE',  ( 0.4999999999999998300, 0.5000000000000000000, -0.5000000000000000000 ) ) ;
#98 = CARTESIAN_POINT ( 'NONE',  ( 0.5000000000000000000, 0.5000000000000000000, -1.530808498934190900E-017 ) ) ;
#99 = CARTESIAN_POINT ( 'NONE',  ( 0.4999999999999998300, 0.0000000000000000000, -0.5000000000000000000 ) ) ;
#100 = CARTESIAN_POINT ( 'NONE',  ( 0.0000000000000000000, 0.5000000000000000000, 0.0000000000000000000 ) ) ;
#101 = CARTESIAN_POINT ( 'NONE',  ( 0.5000000000000000000, 0.0000000000000000000, -1.530808498934190900E-017 ) ) ;
#102 = DIRECTION ( 'NONE',  ( -0.0000000000000000000, -1.000000000000000000, -0.0000000000000000000 ) ) ;
#103 = CARTESIAN_POINT ( 'NONE',  ( 0.0000000000000000000, 0.5000000000000000000, -0.5000000000000000000 ) ) ;
#104 = LINE ( 'NONE', #103, #179 ) ;
#105 = DIRECTION ( 'NONE',  ( -0.0000000000000000000, -1.000000000000000000, -0.0000000000000000000 ) ) ;
#106 = CARTESIAN_POINT ( 'NONE',  ( 0.4999999999999998300, 0.5000000000000000000, -0.5000000000000000000 ) ) ;
#107 = LINE ( 'NONE', #106, #181 ) ;
#108 = DIRECTION ( 'NONE',  ( 1.000000000000000000, -0.0000000000000000000, -3.061616997868381800E-017 ) ) ;
#109 = CARTESIAN_POINT ( 'NONE',  ( 0.5000000000000000000, 0.5000000000000000000, -1.530808498934190900E-017 ) ) ;
#110 = LINE ( 'NONE', #109, #182 ) ;
#111 = DIRECTION ( 'NONE',  ( -0.0000000000000000000, -1.000000000000000000, -0.0000000000000000000 ) ) ;
#112 = CARTESIAN_POINT ( 'NONE',  ( 0.0000000000000000000, 0.5000000000000000000, 0.0000000000000000000 ) ) ;
#113 = LINE ( 'NONE', #112, #184 ) ;
#114 = DIRECTION ( 'NONE',  ( 1.000000000000000000, -0.0000000000000000000, -3.061616997868381800E-017 ) ) ;
#115 = CARTESIAN_POINT ( 'NONE',  ( 0.5000000000000000000, 0.0000000000000000000, -1.530808498934190900E-017 ) ) ;
#116 = LINE ( 'NONE', #115, #174 ) ;
#117 = DIRECTION ( 'NONE',  ( -2.731847993664263200E-016, -0.0000000000000000000, -1.000000000000000000 ) ) ;
#118 = CARTESIAN_POINT ( 'NONE',  ( 0.4999999999999998300, 0.0000000000000000000, -0.5000000000000000000 ) ) ;
#119 = LINE ( 'NONE', #118, #172 ) ;
#120 = DIRECTION ( 'NONE',  ( -1.000000000000000000, -0.0000000000000000000, -0.0000000000000000000 ) ) ;
#121 = CARTESIAN_POINT ( 'NONE',  ( 0.0000000000000000000, 0.0000000000000000000, -0.5000000000000000000 ) ) ;
#122 = LINE ( 'NONE', #121, #195 ) ;
#123 = DIRECTION ( 'NONE',  ( -1.000000000000000000, -0.0000000000000000000, -0.0000000000000000000 ) ) ;
#124 = CARTESIAN_POINT ( 'NONE',  ( 0.0000000000000000000, 0.5000000000000000000, -0.5000000000000000000 ) ) ;
#125 = LINE ( 'NONE', #124, #191 ) ;
#126 = DIRECTION ( 'NONE',  ( -0.0000000000000000000, -0.0000000000000000000, 1.000000000000000000 ) ) ;
#127 = CARTESIAN_POINT ( 'NONE',  ( 0.0000000000000000000, 0.0000000000000000000, 0.0000000000000000000 ) ) ;
#128 = LINE ( 'NONE', #127, #192 ) ;
#129 = DIRECTION ( 'NONE',  ( -0.0000000000000000000, -0.0000000000000000000, 1.000000000000000000 ) ) ;
#130 = CARTESIAN_POINT ( 'NONE',  ( 0.0000000000000000000, 0.5000000000000000000, 0.0000000000000000000 ) ) ;
#131 = LINE ( 'NONE', #130, #193 ) ;
#132 = CARTESIAN_POINT ( 'NONE',  ( 0.0000000000000000000, 0.0000000000000000000, 0.0000000000000000000 ) ) ;
#133 = DIRECTION ( 'NONE',  ( -2.731847993664263200E-016, -0.0000000000000000000, -1.000000000000000000 ) ) ;
#134 = CARTESIAN_POINT ( 'NONE',  ( 0.4999999999999998300, 0.5000000000000000000, -0.5000000000000000000 ) ) ;
#135 = LINE ( 'NONE', #134, #194 ) ;
#136 = VERTEX_POINT ( 'NONE', #132 ) ;
#137 = VERTEX_POINT ( 'NONE', #101 ) ;
#138 = VERTEX_POINT ( 'NONE', #100 ) ;
#139 = VERTEX_POINT ( 'NONE', #99 ) ;
#140 = VERTEX_POINT ( 'NONE', #98 ) ;
#141 = EDGE_LOOP ( 'NONE', ( #163, #49, #48, #50 ) ) ;
#142 = EDGE_LOOP ( 'NONE', ( #27, #25, #26, #33 ) ) ;
#143 = EDGE_LOOP ( 'NONE', ( #162, #160, #161, #159 ) ) ;
#144 = EDGE_LOOP ( 'NONE', ( #30, #74, #31, #72 ) ) ;
#145 = EDGE_LOOP ( 'NONE', ( #156, #155, #154, #73 ) ) ;
#146 = EDGE_LOOP ( 'NONE', ( #152, #151, #150, #153 ) ) ;
#147 = VERTEX_POINT ( 'NONE', #97 ) ;
#148 = VERTEX_POINT ( 'NONE', #96 ) ;
#149 = VERTEX_POINT ( 'NONE', #95 ) ;
#150 = ORIENTED_EDGE ( 'NONE', *, *, #5, .F. ) ;
#151 = ORIENTED_EDGE ( 'NONE', *, *, #3, .F. ) ;
#152 = ORIENTED_EDGE ( 'NONE', *, *, #7, .F. ) ;
#153 = ORIENTED_EDGE ( 'NONE', *, *, #6, .F. ) ;
#154 = ORIENTED_EDGE ( 'NONE', *, *, #4, .T. ) ;
#155 = ORIENTED_EDGE ( 'NONE', *, *, #1, .T. ) ;
#156 = ORIENTED_EDGE ( 'NONE', *, *, #9, .T. ) ;
#157 = APPLICATION_CONTEXT ( 'automotive_design' ) ;
#158 = APPLICATION_CONTEXT ( 'automotive_design' ) ;
#159 = ORIENTED_EDGE ( 'NONE', *, *, #8, .T. ) ;
#160 = ORIENTED_EDGE ( 'NONE', *, *, #164, .F. ) ;
#161 = ORIENTED_EDGE ( 'NONE', *, *, #9, .F. ) ;
#162 = ORIENTED_EDGE ( 'NONE', *, *, #7, .T. ) ;
#163 = ORIENTED_EDGE ( 'NONE', *, *, #6, .T. ) ;
#164 = EDGE_CURVE ( 'NONE', #140, #137, #94, .T. ) ;
#165 = PRODUCT_DEFINITION ( 'UNKNOWN', '', #12, #203 ) ;
#166 = FACE_OUTER_BOUND ( 'NONE', #143, .T. ) ;
#167 = AXIS2_PLACEMENT_3D ( 'NONE', #61, #60, #59 ) ;
#168 = FACE_OUTER_BOUND ( 'NONE', #146, .T. ) ;
#169 = AXIS2_PLACEMENT_3D ( 'NONE', #76, #77, #71 ) ;
#170 = FACE_OUTER_BOUND ( 'NONE', #142, .T. ) ;
#171 = LENGTH_MEASURE_WITH_UNIT ( LENGTH_MEASURE( 0.02539999999999999900 ), #84 );
#172 = VECTOR ( 'NONE', #117, 39.37007874015748100 ) ;
#173 = MECHANICAL_DESIGN_GEOMETRIC_PRESENTATION_REPRESENTATION (  '', ( #183 ), #22 ) ;
#174 = VECTOR ( 'NONE', #114, 39.37007874015748100 ) ;
#175 = AXIS2_PLACEMENT_3D ( 'NONE', #69, #68, #67 ) ;
#176 = PRESENTATION_LAYER_ASSIGNMENT (  '', '', ( #183 ) ) ;
#177 = VECTOR ( 'NONE', #92, 39.37007874015748100 ) ;
#178 = AXIS2_PLACEMENT_3D ( 'NONE', #78, #79, #80 ) ;
#179 = VECTOR ( 'NONE', #102, 39.37007874015748100 ) ;
#180 = FACE_OUTER_BOUND ( 'NONE', #141, .T. ) ;
#181 = VECTOR ( 'NONE', #105, 39.37007874015748100 ) ;
#182 = VECTOR ( 'NONE', #108, 39.37007874015748100 ) ;
#183 = STYLED_ITEM ( 'NONE', ( #85 ), #202 ) ;
#184 = VECTOR ( 'NONE', #111, 39.37007874015748100 ) ;
#185 = FACE_OUTER_BOUND ( 'NONE', #145, .T. ) ;
#186 = ADVANCED_BREP_SHAPE_REPRESENTATION ( 'C500D', ( #202, #21 ), #23 ) ;
#187 = UNCERTAINTY_MEASURE_WITH_UNIT (LENGTH_MEASURE( 1.000000000000000100E-005 ), #39, 'distance_accuracy_value', 'NONE');
#188 = UNCERTAINTY_MEASURE_WITH_UNIT (LENGTH_MEASURE( 1.000000000000000100E-005 ), #83, 'distance_accuracy_value', 'NONE');
#189 = UNCERTAINTY_MEASURE_WITH_UNIT (LENGTH_MEASURE( 1.000000000000000100E-005 ), #53, 'distance_accuracy_value', 'NONE');
#190 = CLOSED_SHELL ( 'NONE', ( #208, #205, #206, #209, #210, #207 ) ) ;
#191 = VECTOR ( 'NONE', #123, 39.37007874015748100 ) ;
#192 = VECTOR ( 'NONE', #126, 39.37007874015748100 ) ;
#193 = VECTOR ( 'NONE', #129, 39.37007874015748100 ) ;
#194 = VECTOR ( 'NONE', #133, 39.37007874015748100 ) ;
#195 = VECTOR ( 'NONE', #120, 39.37007874015748100 ) ;
#196 = PRODUCT_RELATED_PRODUCT_CATEGORY ( 'part', '', ( #198 ) ) ;
#197 = COLOUR_RGB ( '',0.5686274509803921400, 0.5686274509803921400, 0.5882352941176470800 ) ;
#198 = PRODUCT ( 'C500D', 'C500D', '', ( #29 ) ) ;
#199 = DIMENSIONAL_EXPONENTS ( 1.000000000000000000, 0.0000000000000000000, 0.0000000000000000000, 0.0000000000000000000, 0.0000000000000000000, 0.0000000000000000000, 0.0000000000000000000 ) ;
#200 = DIMENSIONAL_EXPONENTS ( 1.000000000000000000, 0.0000000000000000000, 0.0000000000000000000, 0.0000000000000000000, 0.0000000000000000000, 0.0000000000000000000, 0.0000000000000000000 ) ;
#201 = DIMENSIONAL_EXPONENTS ( 1.000000000000000000, 0.0000000000000000000, 0.0000000000000000000, 0.0000000000000000000, 0.0000000000000000000, 0.0000000000000000000, 0.0000000000000000000 ) ;
#202 = MANIFOLD_SOLID_BREP ( 'Boss-Extrude1', #190 ) ;
#203 = PRODUCT_DEFINITION_CONTEXT ( 'detailed design', #157, 'design' ) ;
#204 = PRODUCT_DEFINITION_SHAPE ( 'NONE', 'NONE',  #165 ) ;
#205 = ADVANCED_FACE ( 'NONE', ( #180 ), #91, .F. ) ;
#206 = ADVANCED_FACE ( 'NONE', ( #170 ), #75, .F. ) ;
#207 = ADVANCED_FACE ( 'NONE', ( #168 ), #70, .T. ) ;
#208 = ADVANCED_FACE ( 'NONE', ( #166 ), #66, .F. ) ;
#209 = ADVANCED_FACE ( 'NONE', ( #14 ), #62, .F. ) ;
#210 = ADVANCED_FACE ( 'NONE', ( #185 ), #58, .F. ) ;
#211 = COLOUR_RGB ( '',0.5686274509803921400, 0.5686274509803921400, 0.5882352941176470800 ) ;
ENDSEC;
END-ISO-10303-21;
