ISO-10303-21;
HEADER;
FILE_DESCRIPTION (( 'STEP AP214' ),
    '1' );
FILE_NAME ('D032B-AU.step',
    '2012-04-20T20:50:19',
    ( '' ),
    ( '' ),
    'SwSTEP 2.0',
    'SolidWorks 2012',
    '' );
FILE_SCHEMA (( 'AUTOMOTIVE_DESIGN' ));
ENDSEC;

DATA;
#1 = UNCERTAINTY_MEASURE_WITH_UNIT (LENGTH_MEASURE( 1.000000000000000100E-005 ), #124, 'distance_accuracy_value', 'NONE');
#2 = DIMENSIONAL_EXPONENTS ( 1.000000000000000000, 0.0000000000000000000, 0.0000000000000000000, 0.0000000000000000000, 0.0000000000000000000, 0.0000000000000000000, 0.0000000000000000000 ) ;
#3 = UNCERTAINTY_MEASURE_WITH_UNIT (LENGTH_MEASURE( 1.000000000000000100E-005 ), #75, 'distance_accuracy_value', 'NONE');
#4 = ADVANCED_BREP_SHAPE_REPRESENTATION ( 'D032B-AU', ( #6, #46 ), #148 ) ;
#5 = UNCERTAINTY_MEASURE_WITH_UNIT (LENGTH_MEASURE( 1.000000000000000100E-005 ), #59, 'distance_accuracy_value', 'NONE');
#6 = MANIFOLD_SOLID_BREP ( 'Boss-Extrude1', #54 ) ;
#7 = CIRCLE ( 'NONE', #25, 0.1250000000000000000 ) ;
#8 = COLOUR_RGB ( '',0.9686274509803921600, 0.8784313725490196000, 0.5999999999999999800 ) ;
#9 = CIRCLE ( 'NONE', #28, 0.1250000000000000000 ) ;
#10 = COLOUR_RGB ( '',0.9686274509803921600, 0.8784313725490196000, 0.5999999999999999800 ) ;
#11 = PRODUCT_RELATED_PRODUCT_CATEGORY ( 'part', '', ( #146 ) ) ;
#12 = PRODUCT_DEFINITION ( 'UNKNOWN', '', #47, #51 ) ;
#13 = CIRCLE ( 'NONE', #29, 0.1250000000000000000 ) ;
#14 = EDGE_CURVE ( 'NONE', #143, #142, #24, .T. ) ;
#15 = EDGE_CURVE ( 'NONE', #141, #144, #9, .T. ) ;
#16 = EDGE_CURVE ( 'NONE', #142, #143, #13, .T. ) ;
#17 = EDGE_CURVE ( 'NONE', #142, #141, #100, .T. ) ;
#18 = EDGE_CURVE ( 'NONE', #144, #141, #7, .T. ) ;
#19 = EDGE_CURVE ( 'NONE', #143, #144, #94, .T. ) ;
#20 = ADVANCED_FACE ( 'NONE', ( #30 ), #95, .T. ) ;
#21 = ADVANCED_FACE ( 'NONE', ( #32 ), #88, .F. ) ;
#22 = ADVANCED_FACE ( 'NONE', ( #35 ), #38, .T. ) ;
#23 = ADVANCED_FACE ( 'NONE', ( #37 ), #41, .T. ) ;
#24 = CIRCLE ( 'NONE', #26, 0.1250000000000000000 ) ;
#25 = AXIS2_PLACEMENT_3D ( 'NONE', #101, #97, #96 ) ;
#26 = AXIS2_PLACEMENT_3D ( 'NONE', #110, #109, #108 ) ;
#27 = AXIS2_PLACEMENT_3D ( 'NONE', #84, #83, #82 ) ;
#28 = AXIS2_PLACEMENT_3D ( 'NONE', #107, #106, #105 ) ;
#29 = AXIS2_PLACEMENT_3D ( 'NONE', #104, #103, #102 ) ;
#30 = FACE_OUTER_BOUND ( 'NONE', #139, .T. ) ;
#31 = VECTOR ( 'NONE', #98, 39.37007874015748100 ) ;
#32 = FACE_OUTER_BOUND ( 'NONE', #140, .T. ) ;
#33 = VECTOR ( 'NONE', #92, 39.37007874015748100 ) ;
#34 = AXIS2_PLACEMENT_3D ( 'NONE', #91, #90, #89 ) ;
#35 = FACE_OUTER_BOUND ( 'NONE', #138, .T. ) ;
#36 = AXIS2_PLACEMENT_3D ( 'NONE', #87, #86, #85 ) ;
#37 = FACE_OUTER_BOUND ( 'NONE', #137, .T. ) ;
#38 = CYLINDRICAL_SURFACE ( 'NONE', #27, 0.1250000000000000000 ) ;
#39 = LENGTH_MEASURE_WITH_UNIT ( LENGTH_MEASURE( 0.02539999999999999900 ), #76 );
#40 = AXIS2_PLACEMENT_3D ( 'NONE', #81, #80, #79 ) ;
#41 = CYLINDRICAL_SURFACE ( 'NONE', #40, 0.1250000000000000000 ) ;
#42 = STYLED_ITEM ( 'NONE', ( #66 ), #4 ) ;
#43 = PRESENTATION_LAYER_ASSIGNMENT (  '', '', ( #42 ) ) ;
#44 = MECHANICAL_DESIGN_GEOMETRIC_PRESENTATION_REPRESENTATION (  '', ( #42 ), #149 ) ;
#45 = LENGTH_MEASURE_WITH_UNIT ( LENGTH_MEASURE( 0.02539999999999999900 ), #61 );
#46 = AXIS2_PLACEMENT_3D ( 'NONE', #63, #113, #112 ) ;
#47 = PRODUCT_DEFINITION_FORMATION_WITH_SPECIFIED_SOURCE ( 'ANY', '', #146, .NOT_KNOWN. ) ;
#48 = APPLICATION_CONTEXT ( 'automotive_design' ) ;
#49 = APPLICATION_CONTEXT ( 'automotive_design' ) ;
#50 = DIMENSIONAL_EXPONENTS ( 1.000000000000000000, 0.0000000000000000000, 0.0000000000000000000, 0.0000000000000000000, 0.0000000000000000000, 0.0000000000000000000, 0.0000000000000000000 ) ;
#51 = PRODUCT_DEFINITION_CONTEXT ( 'detailed design', #49, 'design' ) ;
#52 = PRODUCT_DEFINITION_SHAPE ( 'NONE', 'NONE',  #12 ) ;
#53 = MECHANICAL_DESIGN_GEOMETRIC_PRESENTATION_REPRESENTATION (  '', ( #57 ), #147 ) ;
#54 = CLOSED_SHELL ( 'NONE', ( #22, #23, #20, #21 ) ) ;
#55 = PRESENTATION_LAYER_ASSIGNMENT (  '', '', ( #57 ) ) ;
#56 = LENGTH_MEASURE_WITH_UNIT ( LENGTH_MEASURE( 0.02539999999999999900 ), #118 );
#57 = STYLED_ITEM ( 'NONE', ( #119 ), #6 ) ;
#58 =( NAMED_UNIT ( * ) PLANE_ANGLE_UNIT ( ) SI_UNIT ( $, .RADIAN. ) );
#59 =( CONVERSION_BASED_UNIT ( 'INCH', #45 ) LENGTH_UNIT ( ) NAMED_UNIT ( #145 ) );
#60 = APPLICATION_PROTOCOL_DEFINITION ( 'draft international standard', 'automotive_design', 1998, #49 ) ;
#61 =( LENGTH_UNIT ( ) NAMED_UNIT ( * ) SI_UNIT ( $, .METRE. ) );
#62 = CARTESIAN_POINT ( 'NONE',  ( 1.530808498934191500E-017, 0.0000000000000000000, 0.1250000000000000000 ) ) ;
#63 = CARTESIAN_POINT ( 'NONE',  ( 0.0000000000000000000, 0.0000000000000000000, 0.0000000000000000000 ) ) ;
#64 = CARTESIAN_POINT ( 'NONE',  ( 1.530808498934191500E-017, 0.03125000000000000000, 0.1250000000000000000 ) ) ;
#65 = PRODUCT_CONTEXT ( 'NONE', #48, 'mechanical' ) ;
#66 = PRESENTATION_STYLE_ASSIGNMENT (( #69 ) ) ;
#67 = SURFACE_STYLE_FILL_AREA ( #71 ) ;
#68 = SURFACE_SIDE_STYLE ('',( #67 ) ) ;
#69 = SURFACE_STYLE_USAGE ( .BOTH. , #68 ) ;
#70 = FILL_AREA_STYLE_COLOUR ( '', #8 ) ;
#71 = FILL_AREA_STYLE ('',( #70 ) ) ;
#72 = APPLICATION_PROTOCOL_DEFINITION ( 'draft international standard', 'automotive_design', 1998, #48 ) ;
#73 =( NAMED_UNIT ( * ) SI_UNIT ( $, .STERADIAN. ) SOLID_ANGLE_UNIT ( ) );
#74 =( NAMED_UNIT ( * ) PLANE_ANGLE_UNIT ( ) SI_UNIT ( $, .RADIAN. ) );
#75 =( CONVERSION_BASED_UNIT ( 'INCH', #39 ) LENGTH_UNIT ( ) NAMED_UNIT ( #50 ) );
#76 =( LENGTH_UNIT ( ) NAMED_UNIT ( * ) SI_UNIT ( $, .METRE. ) );
#77 = CARTESIAN_POINT ( 'NONE',  ( 0.0000000000000000000, 0.03125000000000000000, -0.1250000000000000000 ) ) ;
#78 = CARTESIAN_POINT ( 'NONE',  ( 0.0000000000000000000, 0.0000000000000000000, -0.1250000000000000000 ) ) ;
#79 = DIRECTION ( 'NONE',  ( 0.0000000000000000000, 0.0000000000000000000, -1.000000000000000000 ) ) ;
#80 = DIRECTION ( 'NONE',  ( -0.0000000000000000000, -1.000000000000000000, -0.0000000000000000000 ) ) ;
#81 = CARTESIAN_POINT ( 'NONE',  ( 0.0000000000000000000, 0.03125000000000000000, 0.0000000000000000000 ) ) ;
#82 = DIRECTION ( 'NONE',  ( 0.0000000000000000000, 0.0000000000000000000, -1.000000000000000000 ) ) ;
#83 = DIRECTION ( 'NONE',  ( -0.0000000000000000000, -1.000000000000000000, -0.0000000000000000000 ) ) ;
#84 = CARTESIAN_POINT ( 'NONE',  ( 0.0000000000000000000, 0.03125000000000000000, 0.0000000000000000000 ) ) ;
#85 = DIRECTION ( 'NONE',  ( 0.0000000000000000000, -0.0000000000000000000, 1.000000000000000000 ) ) ;
#86 = DIRECTION ( 'NONE',  ( 0.0000000000000000000, 1.000000000000000000, 0.0000000000000000000 ) ) ;
#87 = CARTESIAN_POINT ( 'NONE',  ( 0.0000000000000000000, 0.0000000000000000000, 0.0000000000000000000 ) ) ;
#88 = PLANE ( 'NONE',  #36 ) ;
#89 = DIRECTION ( 'NONE',  ( 0.0000000000000000000, -0.0000000000000000000, 1.000000000000000000 ) ) ;
#90 = DIRECTION ( 'NONE',  ( 0.0000000000000000000, 1.000000000000000000, 0.0000000000000000000 ) ) ;
#91 = CARTESIAN_POINT ( 'NONE',  ( 0.0000000000000000000, 0.03125000000000000000, 0.0000000000000000000 ) ) ;
#92 = DIRECTION ( 'NONE',  ( -0.0000000000000000000, -1.000000000000000000, -0.0000000000000000000 ) ) ;
#93 = CARTESIAN_POINT ( 'NONE',  ( 1.530808498934191500E-017, 0.03125000000000000000, 0.1250000000000000000 ) ) ;
#94 = LINE ( 'NONE', #93, #33 ) ;
#95 = PLANE ( 'NONE',  #34 ) ;
#96 = DIRECTION ( 'NONE',  ( 0.0000000000000000000, 0.0000000000000000000, 1.000000000000000000 ) ) ;
#97 = DIRECTION ( 'NONE',  ( 0.0000000000000000000, 1.000000000000000000, 0.0000000000000000000 ) ) ;
#98 = DIRECTION ( 'NONE',  ( -0.0000000000000000000, -1.000000000000000000, -0.0000000000000000000 ) ) ;
#99 = CARTESIAN_POINT ( 'NONE',  ( 0.0000000000000000000, 0.03125000000000000000, -0.1250000000000000000 ) ) ;
#100 = LINE ( 'NONE', #99, #31 ) ;
#101 = CARTESIAN_POINT ( 'NONE',  ( 0.0000000000000000000, 0.0000000000000000000, 0.0000000000000000000 ) ) ;
#102 = DIRECTION ( 'NONE',  ( 0.0000000000000000000, 0.0000000000000000000, 1.000000000000000000 ) ) ;
#103 = DIRECTION ( 'NONE',  ( 0.0000000000000000000, 1.000000000000000000, 0.0000000000000000000 ) ) ;
#104 = CARTESIAN_POINT ( 'NONE',  ( 0.0000000000000000000, 0.03125000000000000000, 0.0000000000000000000 ) ) ;
#105 = DIRECTION ( 'NONE',  ( 0.0000000000000000000, 0.0000000000000000000, 1.000000000000000000 ) ) ;
#106 = DIRECTION ( 'NONE',  ( 0.0000000000000000000, 1.000000000000000000, 0.0000000000000000000 ) ) ;
#107 = CARTESIAN_POINT ( 'NONE',  ( 0.0000000000000000000, 0.0000000000000000000, 0.0000000000000000000 ) ) ;
#108 = DIRECTION ( 'NONE',  ( 0.0000000000000000000, 0.0000000000000000000, 1.000000000000000000 ) ) ;
#109 = DIRECTION ( 'NONE',  ( 0.0000000000000000000, 1.000000000000000000, 0.0000000000000000000 ) ) ;
#110 = CARTESIAN_POINT ( 'NONE',  ( 0.0000000000000000000, 0.03125000000000000000, 0.0000000000000000000 ) ) ;
#111 = SHAPE_DEFINITION_REPRESENTATION ( #52, #4 ) ;
#112 = DIRECTION ( 'NONE',  ( 1.000000000000000000, 0.0000000000000000000, 0.0000000000000000000 ) ) ;
#113 = DIRECTION ( 'NONE',  ( 0.0000000000000000000, 0.0000000000000000000, 1.000000000000000000 ) ) ;
#114 =( NAMED_UNIT ( * ) SI_UNIT ( $, .STERADIAN. ) SOLID_ANGLE_UNIT ( ) );
#115 =( NAMED_UNIT ( * ) PLANE_ANGLE_UNIT ( ) SI_UNIT ( $, .RADIAN. ) );
#116 =( NAMED_UNIT ( * ) SI_UNIT ( $, .STERADIAN. ) SOLID_ANGLE_UNIT ( ) );
#117 = SURFACE_SIDE_STYLE ('',( #120 ) ) ;
#118 =( LENGTH_UNIT ( ) NAMED_UNIT ( * ) SI_UNIT ( $, .METRE. ) );
#119 = PRESENTATION_STYLE_ASSIGNMENT (( #121 ) ) ;
#120 = SURFACE_STYLE_FILL_AREA ( #122 ) ;
#121 = SURFACE_STYLE_USAGE ( .BOTH. , #117 ) ;
#122 = FILL_AREA_STYLE ('',( #123 ) ) ;
#123 = FILL_AREA_STYLE_COLOUR ( '', #10 ) ;
#124 =( CONVERSION_BASED_UNIT ( 'INCH', #56 ) LENGTH_UNIT ( ) NAMED_UNIT ( #2 ) );
#125 = ORIENTED_EDGE ( 'NONE', *, *, #18, .F. ) ;
#126 = ORIENTED_EDGE ( 'NONE', *, *, #15, .F. ) ;
#127 = ORIENTED_EDGE ( 'NONE', *, *, #14, .T. ) ;
#128 = ORIENTED_EDGE ( 'NONE', *, *, #16, .T. ) ;
#129 = ORIENTED_EDGE ( 'NONE', *, *, #15, .T. ) ;
#130 = ORIENTED_EDGE ( 'NONE', *, *, #16, .F. ) ;
#131 = ORIENTED_EDGE ( 'NONE', *, *, #17, .T. ) ;
#132 = ORIENTED_EDGE ( 'NONE', *, *, #19, .F. ) ;
#133 = ORIENTED_EDGE ( 'NONE', *, *, #17, .F. ) ;
#134 = ORIENTED_EDGE ( 'NONE', *, *, #19, .T. ) ;
#135 = ORIENTED_EDGE ( 'NONE', *, *, #18, .T. ) ;
#136 = ORIENTED_EDGE ( 'NONE', *, *, #14, .F. ) ;
#137 = EDGE_LOOP ( 'NONE', ( #132, #130, #131, #129 ) ) ;
#138 = EDGE_LOOP ( 'NONE', ( #136, #134, #135, #133 ) ) ;
#139 = EDGE_LOOP ( 'NONE', ( #128, #127 ) ) ;
#140 = EDGE_LOOP ( 'NONE', ( #126, #125 ) ) ;
#141 = VERTEX_POINT ( 'NONE', #78 ) ;
#142 = VERTEX_POINT ( 'NONE', #77 ) ;
#143 = VERTEX_POINT ( 'NONE', #64 ) ;
#144 = VERTEX_POINT ( 'NONE', #62 ) ;
#145 = DIMENSIONAL_EXPONENTS ( 1.000000000000000000, 0.0000000000000000000, 0.0000000000000000000, 0.0000000000000000000, 0.0000000000000000000, 0.0000000000000000000, 0.0000000000000000000 ) ;
#146 = PRODUCT ( 'D032B-AU', 'D032B-AU', '', ( #65 ) ) ;
#147 =( GEOMETRIC_REPRESENTATION_CONTEXT ( 3 ) GLOBAL_UNCERTAINTY_ASSIGNED_CONTEXT ( ( #1 ) ) GLOBAL_UNIT_ASSIGNED_CONTEXT ( ( #124, #115, #116 ) ) REPRESENTATION_CONTEXT ( 'NONE', 'WORKASPACE' ) );
#148 =( GEOMETRIC_REPRESENTATION_CONTEXT ( 3 ) GLOBAL_UNCERTAINTY_ASSIGNED_CONTEXT ( ( #3 ) ) GLOBAL_UNIT_ASSIGNED_CONTEXT ( ( #75, #74, #73 ) ) REPRESENTATION_CONTEXT ( 'NONE', 'WORKASPACE' ) );
#149 =( GEOMETRIC_REPRESENTATION_CONTEXT ( 3 ) GLOBAL_UNCERTAINTY_ASSIGNED_CONTEXT ( ( #5 ) ) GLOBAL_UNIT_ASSIGNED_CONTEXT ( ( #59, #58, #114 ) ) REPRESENTATION_CONTEXT ( 'NONE', 'WORKASPACE' ) );
ENDSEC;
END-ISO-10303-21;
