ISO-10303-21;
HEADER;
FILE_DESCRIPTION (( 'STEP AP214' ),
    '1' );
FILE_NAME ('D032B.step',
    '2012-04-20T20:50:21',
    ( '' ),
    ( '' ),
    'SwSTEP 2.0',
    'SolidWorks 2012',
    '' );
FILE_SCHEMA (( 'AUTOMOTIVE_DESIGN' ));
ENDSEC;

DATA;
#1 = PRODUCT_DEFINITION_CONTEXT ( 'detailed design', #19, 'design' ) ;
#2 = PRODUCT_DEFINITION_SHAPE ( 'NONE', 'NONE',  #3 ) ;
#3 = PRODUCT_DEFINITION ( 'UNKNOWN', '', #18, #1 ) ;
#4 = PRODUCT_RELATED_PRODUCT_CATEGORY ( 'part', '', ( #38 ) ) ;
#5 = PRESENTATION_LAYER_ASSIGNMENT (  '', '', ( #7 ) ) ;
#6 = VECTOR ( 'NONE', #77, 39.37007874015748100 ) ;
#7 = STYLED_ITEM ( 'NONE', ( #57 ), #11 ) ;
#8 = LENGTH_MEASURE_WITH_UNIT ( LENGTH_MEASURE( 0.02539999999999999900 ), #70 );
#9 = MECHANICAL_DESIGN_GEOMETRIC_PRESENTATION_REPRESENTATION (  '', ( #7 ), #149 ) ;
#10 = DIMENSIONAL_EXPONENTS ( 1.000000000000000000, 0.0000000000000000000, 0.0000000000000000000, 0.0000000000000000000, 0.0000000000000000000, 0.0000000000000000000, 0.0000000000000000000 ) ;
#11 = ADVANCED_BREP_SHAPE_REPRESENTATION ( 'D032B', ( #15, #17 ), #148 ) ;
#12 = UNCERTAINTY_MEASURE_WITH_UNIT (LENGTH_MEASURE( 1.000000000000000100E-005 ), #69, 'distance_accuracy_value', 'NONE');
#13 = UNCERTAINTY_MEASURE_WITH_UNIT (LENGTH_MEASURE( 1.000000000000000100E-005 ), #52, 'distance_accuracy_value', 'NONE');
#14 = UNCERTAINTY_MEASURE_WITH_UNIT (LENGTH_MEASURE( 1.000000000000000100E-005 ), #111, 'distance_accuracy_value', 'NONE');
#15 = MANIFOLD_SOLID_BREP ( 'Boss-Extrude1', #42 ) ;
#16 = LENGTH_MEASURE_WITH_UNIT ( LENGTH_MEASURE( 0.02539999999999999900 ), #56 );
#17 = AXIS2_PLACEMENT_3D ( 'NONE', #50, #49, #47 ) ;
#18 = PRODUCT_DEFINITION_FORMATION_WITH_SPECIFIED_SOURCE ( 'ANY', '', #38, .NOT_KNOWN. ) ;
#19 = APPLICATION_CONTEXT ( 'automotive_design' ) ;
#20 = APPLICATION_CONTEXT ( 'automotive_design' ) ;
#21 = FACE_OUTER_BOUND ( 'NONE', #130, .T. ) ;
#22 = FACE_OUTER_BOUND ( 'NONE', #101, .T. ) ;
#23 = AXIS2_PLACEMENT_3D ( 'NONE', #92, #91, #90 ) ;
#24 = AXIS2_PLACEMENT_3D ( 'NONE', #99, #100, #46 ) ;
#25 = AXIS2_PLACEMENT_3D ( 'NONE', #98, #97, #96 ) ;
#26 = FACE_OUTER_BOUND ( 'NONE', #109, .T. ) ;
#27 = CYLINDRICAL_SURFACE ( 'NONE', #25, 0.1250000000000000000 ) ;
#28 = AXIS2_PLACEMENT_3D ( 'NONE', #95, #94, #93 ) ;
#29 = CYLINDRICAL_SURFACE ( 'NONE', #28, 0.1250000000000000000 ) ;
#30 = AXIS2_PLACEMENT_3D ( 'NONE', #73, #72, #71 ) ;
#31 = FACE_OUTER_BOUND ( 'NONE', #108, .T. ) ;
#32 = AXIS2_PLACEMENT_3D ( 'NONE', #76, #75, #74 ) ;
#33 = AXIS2_PLACEMENT_3D ( 'NONE', #89, #85, #84 ) ;
#34 = VECTOR ( 'NONE', #86, 39.37007874015748100 ) ;
#35 = AXIS2_PLACEMENT_3D ( 'NONE', #82, #81, #80 ) ;
#36 = DIMENSIONAL_EXPONENTS ( 1.000000000000000000, 0.0000000000000000000, 0.0000000000000000000, 0.0000000000000000000, 0.0000000000000000000, 0.0000000000000000000, 0.0000000000000000000 ) ;
#37 = DIMENSIONAL_EXPONENTS ( 1.000000000000000000, 0.0000000000000000000, 0.0000000000000000000, 0.0000000000000000000, 0.0000000000000000000, 0.0000000000000000000, 0.0000000000000000000 ) ;
#38 = PRODUCT ( 'D032B', 'D032B', '', ( #45 ) ) ;
#39 = STYLED_ITEM ( 'NONE', ( #113 ), #15 ) ;
#40 = LENGTH_MEASURE_WITH_UNIT ( LENGTH_MEASURE( 0.02539999999999999900 ), #112 );
#41 = MECHANICAL_DESIGN_GEOMETRIC_PRESENTATION_REPRESENTATION (  '', ( #39 ), #147 ) ;
#42 = CLOSED_SHELL ( 'NONE', ( #137, #136, #143, #135 ) ) ;
#43 = PRESENTATION_LAYER_ASSIGNMENT (  '', '', ( #39 ) ) ;
#44 = APPLICATION_PROTOCOL_DEFINITION ( 'draft international standard', 'automotive_design', 1998, #19 ) ;
#45 = PRODUCT_CONTEXT ( 'NONE', #20, 'mechanical' ) ;
#46 = DIRECTION ( 'NONE',  ( 0.0000000000000000000, -0.0000000000000000000, 1.000000000000000000 ) ) ;
#47 = DIRECTION ( 'NONE',  ( 1.000000000000000000, 0.0000000000000000000, 0.0000000000000000000 ) ) ;
#48 =( NAMED_UNIT ( * ) SI_UNIT ( $, .STERADIAN. ) SOLID_ANGLE_UNIT ( ) );
#49 = DIRECTION ( 'NONE',  ( 0.0000000000000000000, 0.0000000000000000000, 1.000000000000000000 ) ) ;
#50 = CARTESIAN_POINT ( 'NONE',  ( 0.0000000000000000000, 0.0000000000000000000, 0.0000000000000000000 ) ) ;
#51 = SHAPE_DEFINITION_REPRESENTATION ( #2, #11 ) ;
#52 =( CONVERSION_BASED_UNIT ( 'INCH', #16 ) LENGTH_UNIT ( ) NAMED_UNIT ( #37 ) );
#53 =( NAMED_UNIT ( * ) PLANE_ANGLE_UNIT ( ) SI_UNIT ( $, .RADIAN. ) );
#54 = VERTEX_POINT ( 'NONE', #104 ) ;
#55 = VERTEX_POINT ( 'NONE', #103 ) ;
#56 =( LENGTH_UNIT ( ) NAMED_UNIT ( * ) SI_UNIT ( $, .METRE. ) );
#57 = PRESENTATION_STYLE_ASSIGNMENT (( #58 ) ) ;
#58 = SURFACE_STYLE_USAGE ( .BOTH. , #59 ) ;
#59 = SURFACE_SIDE_STYLE ('',( #60 ) ) ;
#60 = SURFACE_STYLE_FILL_AREA ( #62 ) ;
#61 = VERTEX_POINT ( 'NONE', #102 ) ;
#62 = FILL_AREA_STYLE ('',( #63 ) ) ;
#63 = FILL_AREA_STYLE_COLOUR ( '', #140 ) ;
#64 =( NAMED_UNIT ( * ) SI_UNIT ( $, .STERADIAN. ) SOLID_ANGLE_UNIT ( ) );
#65 = VERTEX_POINT ( 'NONE', #106 ) ;
#66 = ORIENTED_EDGE ( 'NONE', *, *, #138, .F. ) ;
#67 =( NAMED_UNIT ( * ) PLANE_ANGLE_UNIT ( ) SI_UNIT ( $, .RADIAN. ) );
#68 = APPLICATION_PROTOCOL_DEFINITION ( 'draft international standard', 'automotive_design', 1998, #20 ) ;
#69 =( CONVERSION_BASED_UNIT ( 'INCH', #8 ) LENGTH_UNIT ( ) NAMED_UNIT ( #36 ) );
#70 =( LENGTH_UNIT ( ) NAMED_UNIT ( * ) SI_UNIT ( $, .METRE. ) );
#71 = DIRECTION ( 'NONE',  ( 0.0000000000000000000, 0.0000000000000000000, 1.000000000000000000 ) ) ;
#72 = DIRECTION ( 'NONE',  ( 0.0000000000000000000, 1.000000000000000000, 0.0000000000000000000 ) ) ;
#73 = CARTESIAN_POINT ( 'NONE',  ( 0.0000000000000000000, 0.03125000000000000000, 0.0000000000000000000 ) ) ;
#74 = DIRECTION ( 'NONE',  ( 0.0000000000000000000, 0.0000000000000000000, 1.000000000000000000 ) ) ;
#75 = DIRECTION ( 'NONE',  ( 0.0000000000000000000, 1.000000000000000000, 0.0000000000000000000 ) ) ;
#76 = CARTESIAN_POINT ( 'NONE',  ( 0.0000000000000000000, 0.0000000000000000000, 0.0000000000000000000 ) ) ;
#77 = DIRECTION ( 'NONE',  ( -0.0000000000000000000, -1.000000000000000000, -0.0000000000000000000 ) ) ;
#78 = CARTESIAN_POINT ( 'NONE',  ( 0.0000000000000000000, 0.03125000000000000000, -0.1250000000000000000 ) ) ;
#79 = LINE ( 'NONE', #78, #6 ) ;
#80 = DIRECTION ( 'NONE',  ( 0.0000000000000000000, -0.0000000000000000000, 1.000000000000000000 ) ) ;
#81 = DIRECTION ( 'NONE',  ( 0.0000000000000000000, 1.000000000000000000, 0.0000000000000000000 ) ) ;
#82 = CARTESIAN_POINT ( 'NONE',  ( 0.0000000000000000000, 0.03125000000000000000, 0.0000000000000000000 ) ) ;
#83 = PLANE ( 'NONE',  #35 ) ;
#84 = DIRECTION ( 'NONE',  ( 0.0000000000000000000, 0.0000000000000000000, 1.000000000000000000 ) ) ;
#85 = DIRECTION ( 'NONE',  ( 0.0000000000000000000, 1.000000000000000000, 0.0000000000000000000 ) ) ;
#86 = DIRECTION ( 'NONE',  ( -0.0000000000000000000, -1.000000000000000000, -0.0000000000000000000 ) ) ;
#87 = CARTESIAN_POINT ( 'NONE',  ( 1.530808498934191500E-017, 0.03125000000000000000, 0.1250000000000000000 ) ) ;
#88 = LINE ( 'NONE', #87, #34 ) ;
#89 = CARTESIAN_POINT ( 'NONE',  ( 0.0000000000000000000, 0.0000000000000000000, 0.0000000000000000000 ) ) ;
#90 = DIRECTION ( 'NONE',  ( 0.0000000000000000000, 0.0000000000000000000, 1.000000000000000000 ) ) ;
#91 = DIRECTION ( 'NONE',  ( 0.0000000000000000000, 1.000000000000000000, 0.0000000000000000000 ) ) ;
#92 = CARTESIAN_POINT ( 'NONE',  ( 0.0000000000000000000, 0.03125000000000000000, 0.0000000000000000000 ) ) ;
#93 = DIRECTION ( 'NONE',  ( 0.0000000000000000000, 0.0000000000000000000, -1.000000000000000000 ) ) ;
#94 = DIRECTION ( 'NONE',  ( -0.0000000000000000000, -1.000000000000000000, -0.0000000000000000000 ) ) ;
#95 = CARTESIAN_POINT ( 'NONE',  ( 0.0000000000000000000, 0.03125000000000000000, 0.0000000000000000000 ) ) ;
#96 = DIRECTION ( 'NONE',  ( 0.0000000000000000000, 0.0000000000000000000, -1.000000000000000000 ) ) ;
#97 = DIRECTION ( 'NONE',  ( -0.0000000000000000000, -1.000000000000000000, -0.0000000000000000000 ) ) ;
#98 = CARTESIAN_POINT ( 'NONE',  ( 0.0000000000000000000, 0.03125000000000000000, 0.0000000000000000000 ) ) ;
#99 = CARTESIAN_POINT ( 'NONE',  ( 0.0000000000000000000, 0.0000000000000000000, 0.0000000000000000000 ) ) ;
#100 = DIRECTION ( 'NONE',  ( 0.0000000000000000000, 1.000000000000000000, 0.0000000000000000000 ) ) ;
#101 = EDGE_LOOP ( 'NONE', ( #120, #119 ) ) ;
#102 = CARTESIAN_POINT ( 'NONE',  ( 1.530808498934191500E-017, 0.03125000000000000000, 0.1250000000000000000 ) ) ;
#103 = CARTESIAN_POINT ( 'NONE',  ( 0.0000000000000000000, 0.0000000000000000000, -0.1250000000000000000 ) ) ;
#104 = CARTESIAN_POINT ( 'NONE',  ( 1.530808498934191500E-017, 0.0000000000000000000, 0.1250000000000000000 ) ) ;
#105 = PLANE ( 'NONE',  #24 ) ;
#106 = CARTESIAN_POINT ( 'NONE',  ( 0.0000000000000000000, 0.03125000000000000000, -0.1250000000000000000 ) ) ;
#107 =( NAMED_UNIT ( * ) SI_UNIT ( $, .STERADIAN. ) SOLID_ANGLE_UNIT ( ) );
#108 = EDGE_LOOP ( 'NONE', ( #122, #121 ) ) ;
#109 = EDGE_LOOP ( 'NONE', ( #66, #128, #129, #127 ) ) ;
#110 =( NAMED_UNIT ( * ) PLANE_ANGLE_UNIT ( ) SI_UNIT ( $, .RADIAN. ) );
#111 =( CONVERSION_BASED_UNIT ( 'INCH', #40 ) LENGTH_UNIT ( ) NAMED_UNIT ( #10 ) );
#112 =( LENGTH_UNIT ( ) NAMED_UNIT ( * ) SI_UNIT ( $, .METRE. ) );
#113 = PRESENTATION_STYLE_ASSIGNMENT (( #114 ) ) ;
#114 = SURFACE_STYLE_USAGE ( .BOTH. , #115 ) ;
#115 = SURFACE_SIDE_STYLE ('',( #116 ) ) ;
#116 = SURFACE_STYLE_FILL_AREA ( #117 ) ;
#117 = FILL_AREA_STYLE ('',( #118 ) ) ;
#118 = FILL_AREA_STYLE_COLOUR ( '', #131 ) ;
#119 = ORIENTED_EDGE ( 'NONE', *, *, #141, .F. ) ;
#120 = ORIENTED_EDGE ( 'NONE', *, *, #145, .F. ) ;
#121 = ORIENTED_EDGE ( 'NONE', *, *, #138, .T. ) ;
#122 = ORIENTED_EDGE ( 'NONE', *, *, #146, .T. ) ;
#123 = ORIENTED_EDGE ( 'NONE', *, *, #145, .T. ) ;
#124 = ORIENTED_EDGE ( 'NONE', *, *, #146, .F. ) ;
#125 = ORIENTED_EDGE ( 'NONE', *, *, #144, .T. ) ;
#126 = ORIENTED_EDGE ( 'NONE', *, *, #139, .F. ) ;
#127 = ORIENTED_EDGE ( 'NONE', *, *, #144, .F. ) ;
#128 = ORIENTED_EDGE ( 'NONE', *, *, #139, .T. ) ;
#129 = ORIENTED_EDGE ( 'NONE', *, *, #141, .T. ) ;
#130 = EDGE_LOOP ( 'NONE', ( #126, #124, #125, #123 ) ) ;
#131 = COLOUR_RGB ( '',0.5686274509803921400, 0.5686274509803921400, 0.5882352941176470800 ) ;
#132 = CIRCLE ( 'NONE', #32, 0.1250000000000000000 ) ;
#133 = CIRCLE ( 'NONE', #33, 0.1250000000000000000 ) ;
#134 = CIRCLE ( 'NONE', #30, 0.1250000000000000000 ) ;
#135 = ADVANCED_FACE ( 'NONE', ( #22 ), #105, .F. ) ;
#136 = ADVANCED_FACE ( 'NONE', ( #21 ), #27, .T. ) ;
#137 = ADVANCED_FACE ( 'NONE', ( #26 ), #29, .T. ) ;
#138 = EDGE_CURVE ( 'NONE', #61, #65, #142, .T. ) ;
#139 = EDGE_CURVE ( 'NONE', #61, #54, #88, .T. ) ;
#140 = COLOUR_RGB ( '',0.5686274509803921400, 0.5686274509803921400, 0.5882352941176470800 ) ;
#141 = EDGE_CURVE ( 'NONE', #54, #55, #133, .T. ) ;
#142 = CIRCLE ( 'NONE', #23, 0.1250000000000000000 ) ;
#143 = ADVANCED_FACE ( 'NONE', ( #31 ), #83, .T. ) ;
#144 = EDGE_CURVE ( 'NONE', #65, #55, #79, .T. ) ;
#145 = EDGE_CURVE ( 'NONE', #55, #54, #132, .T. ) ;
#146 = EDGE_CURVE ( 'NONE', #65, #61, #134, .T. ) ;
#147 =( GEOMETRIC_REPRESENTATION_CONTEXT ( 3 ) GLOBAL_UNCERTAINTY_ASSIGNED_CONTEXT ( ( #14 ) ) GLOBAL_UNIT_ASSIGNED_CONTEXT ( ( #111, #110, #107 ) ) REPRESENTATION_CONTEXT ( 'NONE', 'WORKASPACE' ) );
#148 =( GEOMETRIC_REPRESENTATION_CONTEXT ( 3 ) GLOBAL_UNCERTAINTY_ASSIGNED_CONTEXT ( ( #12 ) ) GLOBAL_UNIT_ASSIGNED_CONTEXT ( ( #69, #67, #64 ) ) REPRESENTATION_CONTEXT ( 'NONE', 'WORKASPACE' ) );
#149 =( GEOMETRIC_REPRESENTATION_CONTEXT ( 3 ) GLOBAL_UNCERTAINTY_ASSIGNED_CONTEXT ( ( #13 ) ) GLOBAL_UNIT_ASSIGNED_CONTEXT ( ( #52, #53, #48 ) ) REPRESENTATION_CONTEXT ( 'NONE', 'WORKASPACE' ) );
ENDSEC;
END-ISO-10303-21;
