ISO-10303-21;
HEADER;
FILE_DESCRIPTION (( 'STEP AP214' ),
    '1' );
FILE_NAME ('D032D.step',
    '2012-04-20T20:50:50',
    ( '' ),
    ( '' ),
    'SwSTEP 2.0',
    'SolidWorks 2012',
    '' );
FILE_SCHEMA (( 'AUTOMOTIVE_DESIGN' ));
ENDSEC;

DATA;
#1 = PRODUCT_DEFINITION_FORMATION_WITH_SPECIFIED_SOURCE ( 'ANY', '', #131, .NOT_KNOWN. ) ;
#2 = AXIS2_PLACEMENT_3D ( 'NONE', #83, #84, #85 ) ;
#3 = LENGTH_MEASURE_WITH_UNIT ( LENGTH_MEASURE( 0.02539999999999999900 ), #79 );
#4 = MECHANICAL_DESIGN_GEOMETRIC_PRESENTATION_REPRESENTATION (  '', ( #6 ), #127 ) ;
#5 = LENGTH_MEASURE_WITH_UNIT ( LENGTH_MEASURE( 0.02539999999999999900 ), #68 );
#6 = STYLED_ITEM ( 'NONE', ( #78 ), #62 ) ;
#7 = PRESENTATION_LAYER_ASSIGNMENT (  '', '', ( #6 ) ) ;
#8 = LENGTH_MEASURE_WITH_UNIT ( LENGTH_MEASURE( 0.02539999999999999900 ), #55 );
#9 = MECHANICAL_DESIGN_GEOMETRIC_PRESENTATION_REPRESENTATION (  '', ( #37 ), #125 ) ;
#10 = VERTEX_POINT ( 'NONE', #11 ) ;
#11 = CARTESIAN_POINT ( 'NONE',  ( 0.0000000000000000000, 0.03125000000000000000, -0.2500000000000000000 ) ) ;
#12 = VERTEX_POINT ( 'NONE', #16 ) ;
#13 = ORIENTED_EDGE ( 'NONE', *, *, #98, .F. ) ;
#14 = VERTEX_POINT ( 'NONE', #20 ) ;
#15 = DIRECTION ( 'NONE',  ( 0.0000000000000000000, -0.0000000000000000000, 1.000000000000000000 ) ) ;
#16 = CARTESIAN_POINT ( 'NONE',  ( 0.0000000000000000000, 0.0000000000000000000, -0.2500000000000000000 ) ) ;
#17 = DIRECTION ( 'NONE',  ( 0.0000000000000000000, 1.000000000000000000, 0.0000000000000000000 ) ) ;
#18 = PLANE ( 'NONE',  #50 ) ;
#19 = CARTESIAN_POINT ( 'NONE',  ( 0.0000000000000000000, 0.0000000000000000000, 0.0000000000000000000 ) ) ;
#20 = CARTESIAN_POINT ( 'NONE',  ( 3.061616997868383000E-017, 0.0000000000000000000, 0.2500000000000000000 ) ) ;
#21 = CARTESIAN_POINT ( 'NONE',  ( 0.0000000000000000000, 0.03125000000000000000, 0.0000000000000000000 ) ) ;
#22 = DIRECTION ( 'NONE',  ( -0.0000000000000000000, -1.000000000000000000, -0.0000000000000000000 ) ) ;
#23 = DIRECTION ( 'NONE',  ( 0.0000000000000000000, 0.0000000000000000000, -1.000000000000000000 ) ) ;
#24 = PLANE ( 'NONE',  #40 ) ;
#25 = DIRECTION ( 'NONE',  ( 0.0000000000000000000, -0.0000000000000000000, 1.000000000000000000 ) ) ;
#26 = CARTESIAN_POINT ( 'NONE',  ( 0.0000000000000000000, 0.0000000000000000000, 0.0000000000000000000 ) ) ;
#27 = DIRECTION ( 'NONE',  ( 0.0000000000000000000, 0.0000000000000000000, -1.000000000000000000 ) ) ;
#28 = CARTESIAN_POINT ( 'NONE',  ( 0.0000000000000000000, 0.03125000000000000000, 0.0000000000000000000 ) ) ;
#29 = CARTESIAN_POINT ( 'NONE',  ( 0.0000000000000000000, 0.03125000000000000000, 0.0000000000000000000 ) ) ;
#30 = DIRECTION ( 'NONE',  ( 0.0000000000000000000, 1.000000000000000000, 0.0000000000000000000 ) ) ;
#31 = CARTESIAN_POINT ( 'NONE',  ( 0.0000000000000000000, 0.03125000000000000000, 0.0000000000000000000 ) ) ;
#32 = DIRECTION ( 'NONE',  ( -0.0000000000000000000, -1.000000000000000000, -0.0000000000000000000 ) ) ;
#33 = DIRECTION ( 'NONE',  ( 0.0000000000000000000, 1.000000000000000000, 0.0000000000000000000 ) ) ;
#34 = DIRECTION ( 'NONE',  ( 0.0000000000000000000, 0.0000000000000000000, 1.000000000000000000 ) ) ;
#35 = AXIS2_PLACEMENT_3D ( 'NONE', #31, #119, #118 ) ;
#36 = AXIS2_PLACEMENT_3D ( 'NONE', #114, #113, #112 ) ;
#37 = STYLED_ITEM ( 'NONE', ( #57 ), #122 ) ;
#38 = CYLINDRICAL_SURFACE ( 'NONE', #39, 0.2500000000000000000 ) ;
#39 = AXIS2_PLACEMENT_3D ( 'NONE', #28, #32, #27 ) ;
#40 = AXIS2_PLACEMENT_3D ( 'NONE', #29, #30, #25 ) ;
#41 = AXIS2_PLACEMENT_3D ( 'NONE', #26, #33, #34 ) ;
#42 = FACE_OUTER_BOUND ( 'NONE', #134, .T. ) ;
#43 = CYLINDRICAL_SURFACE ( 'NONE', #45, 0.2500000000000000000 ) ;
#44 = FACE_OUTER_BOUND ( 'NONE', #135, .T. ) ;
#45 = AXIS2_PLACEMENT_3D ( 'NONE', #21, #22, #23 ) ;
#46 = CLOSED_SHELL ( 'NONE', ( #91, #93, #92, #89 ) ) ;
#47 = FACE_OUTER_BOUND ( 'NONE', #136, .T. ) ;
#48 = FACE_OUTER_BOUND ( 'NONE', #133, .T. ) ;
#49 = VECTOR ( 'NONE', #120, 39.37007874015748100 ) ;
#50 = AXIS2_PLACEMENT_3D ( 'NONE', #19, #17, #15 ) ;
#51 = PRESENTATION_LAYER_ASSIGNMENT (  '', '', ( #37 ) ) ;
#52 = VECTOR ( 'NONE', #109, 39.37007874015748100 ) ;
#53 = AXIS2_PLACEMENT_3D ( 'NONE', #117, #116, #115 ) ;
#54 =( CONVERSION_BASED_UNIT ( 'INCH', #8 ) LENGTH_UNIT ( ) NAMED_UNIT ( #129 ) );
#55 =( LENGTH_UNIT ( ) NAMED_UNIT ( * ) SI_UNIT ( $, .METRE. ) );
#56 = SURFACE_SIDE_STYLE ('',( #60 ) ) ;
#57 = PRESENTATION_STYLE_ASSIGNMENT (( #58 ) ) ;
#58 = SURFACE_STYLE_USAGE ( .BOTH. , #56 ) ;
#59 = FILL_AREA_STYLE ('',( #108 ) ) ;
#60 = SURFACE_STYLE_FILL_AREA ( #59 ) ;
#61 = UNCERTAINTY_MEASURE_WITH_UNIT (LENGTH_MEASURE( 1.000000000000000100E-005 ), #69, 'distance_accuracy_value', 'NONE');
#62 = ADVANCED_BREP_SHAPE_REPRESENTATION ( 'D032D', ( #122, #2 ), #126 ) ;
#63 = UNCERTAINTY_MEASURE_WITH_UNIT (LENGTH_MEASURE( 1.000000000000000100E-005 ), #80, 'distance_accuracy_value', 'NONE');
#64 = UNCERTAINTY_MEASURE_WITH_UNIT (LENGTH_MEASURE( 1.000000000000000100E-005 ), #54, 'distance_accuracy_value', 'NONE');
#65 =( NAMED_UNIT ( * ) PLANE_ANGLE_UNIT ( ) SI_UNIT ( $, .RADIAN. ) );
#66 =( NAMED_UNIT ( * ) SI_UNIT ( $, .STERADIAN. ) SOLID_ANGLE_UNIT ( ) );
#67 = CARTESIAN_POINT ( 'NONE',  ( 3.061616997868383000E-017, 0.03125000000000000000, 0.2500000000000000000 ) ) ;
#68 =( LENGTH_UNIT ( ) NAMED_UNIT ( * ) SI_UNIT ( $, .METRE. ) );
#69 =( CONVERSION_BASED_UNIT ( 'INCH', #5 ) LENGTH_UNIT ( ) NAMED_UNIT ( #128 ) );
#70 =( NAMED_UNIT ( * ) PLANE_ANGLE_UNIT ( ) SI_UNIT ( $, .RADIAN. ) );
#71 =( NAMED_UNIT ( * ) SI_UNIT ( $, .STERADIAN. ) SOLID_ANGLE_UNIT ( ) );
#72 = APPLICATION_PROTOCOL_DEFINITION ( 'draft international standard', 'automotive_design', 1998, #148 ) ;
#73 = FILL_AREA_STYLE_COLOUR ( '', #105 ) ;
#74 = FILL_AREA_STYLE ('',( #73 ) ) ;
#75 = SURFACE_STYLE_FILL_AREA ( #74 ) ;
#76 = SURFACE_SIDE_STYLE ('',( #75 ) ) ;
#77 = SURFACE_STYLE_USAGE ( .BOTH. , #76 ) ;
#78 = PRESENTATION_STYLE_ASSIGNMENT (( #77 ) ) ;
#79 =( LENGTH_UNIT ( ) NAMED_UNIT ( * ) SI_UNIT ( $, .METRE. ) );
#80 =( CONVERSION_BASED_UNIT ( 'INCH', #3 ) LENGTH_UNIT ( ) NAMED_UNIT ( #130 ) );
#81 =( NAMED_UNIT ( * ) PLANE_ANGLE_UNIT ( ) SI_UNIT ( $, .RADIAN. ) );
#82 =( NAMED_UNIT ( * ) SI_UNIT ( $, .STERADIAN. ) SOLID_ANGLE_UNIT ( ) );
#83 = CARTESIAN_POINT ( 'NONE',  ( 0.0000000000000000000, 0.0000000000000000000, 0.0000000000000000000 ) ) ;
#84 = DIRECTION ( 'NONE',  ( 0.0000000000000000000, 0.0000000000000000000, 1.000000000000000000 ) ) ;
#85 = DIRECTION ( 'NONE',  ( 1.000000000000000000, 0.0000000000000000000, 0.0000000000000000000 ) ) ;
#86 = SHAPE_DEFINITION_REPRESENTATION ( #124, #62 ) ;
#87 = PRODUCT_CONTEXT ( 'NONE', #148, 'mechanical' ) ;
#88 = APPLICATION_PROTOCOL_DEFINITION ( 'draft international standard', 'automotive_design', 1998, #149 ) ;
#89 = ADVANCED_FACE ( 'NONE', ( #47 ), #18, .F. ) ;
#90 = CIRCLE ( 'NONE', #35, 0.2500000000000000000 ) ;
#91 = ADVANCED_FACE ( 'NONE', ( #48 ), #43, .T. ) ;
#92 = ADVANCED_FACE ( 'NONE', ( #44 ), #24, .T. ) ;
#93 = ADVANCED_FACE ( 'NONE', ( #42 ), #38, .T. ) ;
#94 = EDGE_CURVE ( 'NONE', #14, #12, #100, .T. ) ;
#95 = EDGE_CURVE ( 'NONE', #10, #12, #107, .T. ) ;
#96 = EDGE_CURVE ( 'NONE', #10, #132, #90, .T. ) ;
#97 = EDGE_CURVE ( 'NONE', #12, #14, #101, .T. ) ;
#98 = EDGE_CURVE ( 'NONE', #132, #10, #102, .T. ) ;
#99 = EDGE_CURVE ( 'NONE', #132, #14, #111, .T. ) ;
#100 = CIRCLE ( 'NONE', #41, 0.2500000000000000000 ) ;
#101 = CIRCLE ( 'NONE', #53, 0.2500000000000000000 ) ;
#102 = CIRCLE ( 'NONE', #36, 0.2500000000000000000 ) ;
#103 = COLOUR_RGB ( '',0.5686274509803921400, 0.5686274509803921400, 0.5882352941176470800 ) ;
#104 = PRODUCT_DEFINITION ( 'UNKNOWN', '', #1, #123 ) ;
#105 = COLOUR_RGB ( '',0.5686274509803921400, 0.5686274509803921400, 0.5882352941176470800 ) ;
#106 = PRODUCT_RELATED_PRODUCT_CATEGORY ( 'part', '', ( #131 ) ) ;
#107 = LINE ( 'NONE', #121, #49 ) ;
#108 = FILL_AREA_STYLE_COLOUR ( '', #103 ) ;
#109 = DIRECTION ( 'NONE',  ( -0.0000000000000000000, -1.000000000000000000, -0.0000000000000000000 ) ) ;
#110 = CARTESIAN_POINT ( 'NONE',  ( 3.061616997868383000E-017, 0.03125000000000000000, 0.2500000000000000000 ) ) ;
#111 = LINE ( 'NONE', #110, #52 ) ;
#112 = DIRECTION ( 'NONE',  ( 0.0000000000000000000, 0.0000000000000000000, 1.000000000000000000 ) ) ;
#113 = DIRECTION ( 'NONE',  ( 0.0000000000000000000, 1.000000000000000000, 0.0000000000000000000 ) ) ;
#114 = CARTESIAN_POINT ( 'NONE',  ( 0.0000000000000000000, 0.03125000000000000000, 0.0000000000000000000 ) ) ;
#115 = DIRECTION ( 'NONE',  ( 0.0000000000000000000, 0.0000000000000000000, 1.000000000000000000 ) ) ;
#116 = DIRECTION ( 'NONE',  ( 0.0000000000000000000, 1.000000000000000000, 0.0000000000000000000 ) ) ;
#117 = CARTESIAN_POINT ( 'NONE',  ( 0.0000000000000000000, 0.0000000000000000000, 0.0000000000000000000 ) ) ;
#118 = DIRECTION ( 'NONE',  ( 0.0000000000000000000, 0.0000000000000000000, 1.000000000000000000 ) ) ;
#119 = DIRECTION ( 'NONE',  ( 0.0000000000000000000, 1.000000000000000000, 0.0000000000000000000 ) ) ;
#120 = DIRECTION ( 'NONE',  ( -0.0000000000000000000, -1.000000000000000000, -0.0000000000000000000 ) ) ;
#121 = CARTESIAN_POINT ( 'NONE',  ( 0.0000000000000000000, 0.03125000000000000000, -0.2500000000000000000 ) ) ;
#122 = MANIFOLD_SOLID_BREP ( 'Boss-Extrude1', #46 ) ;
#123 = PRODUCT_DEFINITION_CONTEXT ( 'detailed design', #149, 'design' ) ;
#124 = PRODUCT_DEFINITION_SHAPE ( 'NONE', 'NONE',  #104 ) ;
#125 =( GEOMETRIC_REPRESENTATION_CONTEXT ( 3 ) GLOBAL_UNCERTAINTY_ASSIGNED_CONTEXT ( ( #64 ) ) GLOBAL_UNIT_ASSIGNED_CONTEXT ( ( #54, #65, #66 ) ) REPRESENTATION_CONTEXT ( 'NONE', 'WORKASPACE' ) );
#126 =( GEOMETRIC_REPRESENTATION_CONTEXT ( 3 ) GLOBAL_UNCERTAINTY_ASSIGNED_CONTEXT ( ( #61 ) ) GLOBAL_UNIT_ASSIGNED_CONTEXT ( ( #69, #70, #71 ) ) REPRESENTATION_CONTEXT ( 'NONE', 'WORKASPACE' ) );
#127 =( GEOMETRIC_REPRESENTATION_CONTEXT ( 3 ) GLOBAL_UNCERTAINTY_ASSIGNED_CONTEXT ( ( #63 ) ) GLOBAL_UNIT_ASSIGNED_CONTEXT ( ( #80, #81, #82 ) ) REPRESENTATION_CONTEXT ( 'NONE', 'WORKASPACE' ) );
#128 = DIMENSIONAL_EXPONENTS ( 1.000000000000000000, 0.0000000000000000000, 0.0000000000000000000, 0.0000000000000000000, 0.0000000000000000000, 0.0000000000000000000, 0.0000000000000000000 ) ;
#129 = DIMENSIONAL_EXPONENTS ( 1.000000000000000000, 0.0000000000000000000, 0.0000000000000000000, 0.0000000000000000000, 0.0000000000000000000, 0.0000000000000000000, 0.0000000000000000000 ) ;
#130 = DIMENSIONAL_EXPONENTS ( 1.000000000000000000, 0.0000000000000000000, 0.0000000000000000000, 0.0000000000000000000, 0.0000000000000000000, 0.0000000000000000000, 0.0000000000000000000 ) ;
#131 = PRODUCT ( 'D032D', 'D032D', '', ( #87 ) ) ;
#132 = VERTEX_POINT ( 'NONE', #67 ) ;
#133 = EDGE_LOOP ( 'NONE', ( #13, #138, #137, #147 ) ) ;
#134 = EDGE_LOOP ( 'NONE', ( #146, #144, #145, #143 ) ) ;
#135 = EDGE_LOOP ( 'NONE', ( #142, #141 ) ) ;
#136 = EDGE_LOOP ( 'NONE', ( #140, #139 ) ) ;
#137 = ORIENTED_EDGE ( 'NONE', *, *, #94, .T. ) ;
#138 = ORIENTED_EDGE ( 'NONE', *, *, #99, .T. ) ;
#139 = ORIENTED_EDGE ( 'NONE', *, *, #94, .F. ) ;
#140 = ORIENTED_EDGE ( 'NONE', *, *, #97, .F. ) ;
#141 = ORIENTED_EDGE ( 'NONE', *, *, #98, .T. ) ;
#142 = ORIENTED_EDGE ( 'NONE', *, *, #96, .T. ) ;
#143 = ORIENTED_EDGE ( 'NONE', *, *, #97, .T. ) ;
#144 = ORIENTED_EDGE ( 'NONE', *, *, #96, .F. ) ;
#145 = ORIENTED_EDGE ( 'NONE', *, *, #95, .T. ) ;
#146 = ORIENTED_EDGE ( 'NONE', *, *, #99, .F. ) ;
#147 = ORIENTED_EDGE ( 'NONE', *, *, #95, .F. ) ;
#148 = APPLICATION_CONTEXT ( 'automotive_design' ) ;
#149 = APPLICATION_CONTEXT ( 'automotive_design' ) ;
ENDSEC;
END-ISO-10303-21;
