ISO-10303-21;
HEADER;
FILE_DESCRIPTION (( 'STEP AP214' ),
    '1' );
FILE_NAME ('D032E.step',
    '2012-04-20T20:50:55',
    ( '' ),
    ( '' ),
    'SwSTEP 2.0',
    'SolidWorks 2012',
    '' );
FILE_SCHEMA (( 'AUTOMOTIVE_DESIGN' ));
ENDSEC;

DATA;
#1 = AXIS2_PLACEMENT_3D ( 'NONE', #80, #81, #82 ) ;
#2 = STYLED_ITEM ( 'NONE', ( #59 ), #129 ) ;
#3 = LENGTH_MEASURE_WITH_UNIT ( LENGTH_MEASURE( 0.02539999999999999900 ), #76 );
#4 = LENGTH_MEASURE_WITH_UNIT ( LENGTH_MEASURE( 0.02539999999999999900 ), #65 );
#5 = MECHANICAL_DESIGN_GEOMETRIC_PRESENTATION_REPRESENTATION (  '', ( #9 ), #43 ) ;
#6 = AXIS2_PLACEMENT_3D ( 'NONE', #120, #119, #118 ) ;
#7 = FACE_OUTER_BOUND ( 'NONE', #144, .T. ) ;
#8 = PRESENTATION_LAYER_ASSIGNMENT (  '', '', ( #9 ) ) ;
#9 = STYLED_ITEM ( 'NONE', ( #75 ), #88 ) ;
#10 = AXIS2_PLACEMENT_3D ( 'NONE', #114, #113, #112 ) ;
#11 = FACE_OUTER_BOUND ( 'NONE', #146, .T. ) ;
#12 = CYLINDRICAL_SURFACE ( 'NONE', #10, 0.3125000000000000000 ) ;
#13 = PRESENTATION_LAYER_ASSIGNMENT (  '', '', ( #2 ) ) ;
#14 = MECHANICAL_DESIGN_GEOMETRIC_PRESENTATION_REPRESENTATION (  '', ( #2 ), #41 ) ;
#15 = LENGTH_MEASURE_WITH_UNIT ( LENGTH_MEASURE( 0.02539999999999999900 ), #58 );
#16 = PLANE ( 'NONE',  #44 ) ;
#17 = DIRECTION ( 'NONE',  ( 0.0000000000000000000, 0.0000000000000000000, 1.000000000000000000 ) ) ;
#18 = DIRECTION ( 'NONE',  ( 0.0000000000000000000, 1.000000000000000000, 0.0000000000000000000 ) ) ;
#19 = CARTESIAN_POINT ( 'NONE',  ( 0.0000000000000000000, 0.0000000000000000000, 0.0000000000000000000 ) ) ;
#20 = DIRECTION ( 'NONE',  ( 0.0000000000000000000, 0.0000000000000000000, 1.000000000000000000 ) ) ;
#21 = DIRECTION ( 'NONE',  ( 0.0000000000000000000, 1.000000000000000000, 0.0000000000000000000 ) ) ;
#22 = DIRECTION ( 'NONE',  ( -0.0000000000000000000, -1.000000000000000000, -0.0000000000000000000 ) ) ;
#23 = CARTESIAN_POINT ( 'NONE',  ( 0.0000000000000000000, 0.03125000000000000000, -0.3125000000000000000 ) ) ;
#24 = LINE ( 'NONE', #23, #48 ) ;
#25 = CARTESIAN_POINT ( 'NONE',  ( 0.0000000000000000000, 0.03125000000000000000, 0.0000000000000000000 ) ) ;
#26 = DIRECTION ( 'NONE',  ( 0.0000000000000000000, 0.0000000000000000000, 1.000000000000000000 ) ) ;
#27 = DIRECTION ( 'NONE',  ( 0.0000000000000000000, 1.000000000000000000, 0.0000000000000000000 ) ) ;
#28 = CARTESIAN_POINT ( 'NONE',  ( 0.0000000000000000000, 0.0000000000000000000, 0.0000000000000000000 ) ) ;
#29 = DIRECTION ( 'NONE',  ( 0.0000000000000000000, 0.0000000000000000000, 1.000000000000000000 ) ) ;
#30 = DIRECTION ( 'NONE',  ( 0.0000000000000000000, 1.000000000000000000, 0.0000000000000000000 ) ) ;
#31 = CARTESIAN_POINT ( 'NONE',  ( 0.0000000000000000000, 0.03125000000000000000, 0.0000000000000000000 ) ) ;
#32 = DIRECTION ( 'NONE',  ( -0.0000000000000000000, -1.000000000000000000, -0.0000000000000000000 ) ) ;
#33 = CARTESIAN_POINT ( 'NONE',  ( 3.827021247335478900E-017, 0.03125000000000000000, 0.3125000000000000000 ) ) ;
#34 = LINE ( 'NONE', #33, #52 ) ;
#35 = CARTESIAN_POINT ( 'NONE',  ( 0.0000000000000000000, 0.03125000000000000000, -0.3125000000000000000 ) ) ;
#36 = CARTESIAN_POINT ( 'NONE',  ( 3.827021247335478900E-017, 0.03125000000000000000, 0.3125000000000000000 ) ) ;
#37 = CARTESIAN_POINT ( 'NONE',  ( 0.0000000000000000000, 0.0000000000000000000, -0.3125000000000000000 ) ) ;
#38 = VERTEX_POINT ( 'NONE', #37 ) ;
#39 = VERTEX_POINT ( 'NONE', #36 ) ;
#40 = VERTEX_POINT ( 'NONE', #35 ) ;
#41 =( GEOMETRIC_REPRESENTATION_CONTEXT ( 3 ) GLOBAL_UNCERTAINTY_ASSIGNED_CONTEXT ( ( #87 ) ) GLOBAL_UNIT_ASSIGNED_CONTEXT ( ( #56, #62, #63 ) ) REPRESENTATION_CONTEXT ( 'NONE', 'WORKASPACE' ) );
#42 =( GEOMETRIC_REPRESENTATION_CONTEXT ( 3 ) GLOBAL_UNCERTAINTY_ASSIGNED_CONTEXT ( ( #89 ) ) GLOBAL_UNIT_ASSIGNED_CONTEXT ( ( #66, #67, #68 ) ) REPRESENTATION_CONTEXT ( 'NONE', 'WORKASPACE' ) );
#43 =( GEOMETRIC_REPRESENTATION_CONTEXT ( 3 ) GLOBAL_UNCERTAINTY_ASSIGNED_CONTEXT ( ( #90 ) ) GLOBAL_UNIT_ASSIGNED_CONTEXT ( ( #77, #78, #79 ) ) REPRESENTATION_CONTEXT ( 'NONE', 'WORKASPACE' ) );
#44 = AXIS2_PLACEMENT_3D ( 'NONE', #124, #123, #122 ) ;
#45 = CYLINDRICAL_SURFACE ( 'NONE', #47, 0.3125000000000000000 ) ;
#46 = FACE_OUTER_BOUND ( 'NONE', #142, .T. ) ;
#47 = AXIS2_PLACEMENT_3D ( 'NONE', #117, #116, #115 ) ;
#48 = VECTOR ( 'NONE', #22, 39.37007874015748100 ) ;
#49 = AXIS2_PLACEMENT_3D ( 'NONE', #25, #21, #20 ) ;
#50 = AXIS2_PLACEMENT_3D ( 'NONE', #28, #27, #26 ) ;
#51 = AXIS2_PLACEMENT_3D ( 'NONE', #31, #30, #29 ) ;
#52 = VECTOR ( 'NONE', #32, 39.37007874015748100 ) ;
#53 = CLOSED_SHELL ( 'NONE', ( #101, #100, #99, #98 ) ) ;
#54 = AXIS2_PLACEMENT_3D ( 'NONE', #19, #18, #17 ) ;
#55 = FACE_OUTER_BOUND ( 'NONE', #143, .T. ) ;
#56 =( CONVERSION_BASED_UNIT ( 'INCH', #15 ) LENGTH_UNIT ( ) NAMED_UNIT ( #126 ) );
#57 = DIMENSIONAL_EXPONENTS ( 1.000000000000000000, 0.0000000000000000000, 0.0000000000000000000, 0.0000000000000000000, 0.0000000000000000000, 0.0000000000000000000, 0.0000000000000000000 ) ;
#58 =( LENGTH_UNIT ( ) NAMED_UNIT ( * ) SI_UNIT ( $, .METRE. ) );
#59 = PRESENTATION_STYLE_ASSIGNMENT (( #60 ) ) ;
#60 = SURFACE_STYLE_USAGE ( .BOTH. , #61 ) ;
#61 = SURFACE_SIDE_STYLE ('',( #109 ) ) ;
#62 =( NAMED_UNIT ( * ) PLANE_ANGLE_UNIT ( ) SI_UNIT ( $, .RADIAN. ) );
#63 =( NAMED_UNIT ( * ) SI_UNIT ( $, .STERADIAN. ) SOLID_ANGLE_UNIT ( ) );
#64 = CARTESIAN_POINT ( 'NONE',  ( 3.827021247335478900E-017, 0.0000000000000000000, 0.3125000000000000000 ) ) ;
#65 =( LENGTH_UNIT ( ) NAMED_UNIT ( * ) SI_UNIT ( $, .METRE. ) );
#66 =( CONVERSION_BASED_UNIT ( 'INCH', #4 ) LENGTH_UNIT ( ) NAMED_UNIT ( #57 ) );
#67 =( NAMED_UNIT ( * ) PLANE_ANGLE_UNIT ( ) SI_UNIT ( $, .RADIAN. ) );
#68 =( NAMED_UNIT ( * ) SI_UNIT ( $, .STERADIAN. ) SOLID_ANGLE_UNIT ( ) );
#69 = APPLICATION_PROTOCOL_DEFINITION ( 'draft international standard', 'automotive_design', 1998, #148 ) ;
#70 = FILL_AREA_STYLE_COLOUR ( '', #107 ) ;
#71 = FILL_AREA_STYLE ('',( #70 ) ) ;
#72 = SURFACE_STYLE_FILL_AREA ( #71 ) ;
#73 = SURFACE_SIDE_STYLE ('',( #72 ) ) ;
#74 = SURFACE_STYLE_USAGE ( .BOTH. , #73 ) ;
#75 = PRESENTATION_STYLE_ASSIGNMENT (( #74 ) ) ;
#76 =( LENGTH_UNIT ( ) NAMED_UNIT ( * ) SI_UNIT ( $, .METRE. ) );
#77 =( CONVERSION_BASED_UNIT ( 'INCH', #3 ) LENGTH_UNIT ( ) NAMED_UNIT ( #127 ) );
#78 =( NAMED_UNIT ( * ) PLANE_ANGLE_UNIT ( ) SI_UNIT ( $, .RADIAN. ) );
#79 =( NAMED_UNIT ( * ) SI_UNIT ( $, .STERADIAN. ) SOLID_ANGLE_UNIT ( ) );
#80 = CARTESIAN_POINT ( 'NONE',  ( 0.0000000000000000000, 0.0000000000000000000, 0.0000000000000000000 ) ) ;
#81 = DIRECTION ( 'NONE',  ( 0.0000000000000000000, 0.0000000000000000000, 1.000000000000000000 ) ) ;
#82 = DIRECTION ( 'NONE',  ( 1.000000000000000000, 0.0000000000000000000, 0.0000000000000000000 ) ) ;
#83 = SHAPE_DEFINITION_REPRESENTATION ( #147, #88 ) ;
#84 = PRODUCT_CONTEXT ( 'NONE', #148, 'mechanical' ) ;
#85 = APPLICATION_PROTOCOL_DEFINITION ( 'draft international standard', 'automotive_design', 1998, #149 ) ;
#86 = PRODUCT_DEFINITION_FORMATION_WITH_SPECIFIED_SOURCE ( 'ANY', '', #128, .NOT_KNOWN. ) ;
#87 = UNCERTAINTY_MEASURE_WITH_UNIT (LENGTH_MEASURE( 1.000000000000000100E-005 ), #56, 'distance_accuracy_value', 'NONE');
#88 = ADVANCED_BREP_SHAPE_REPRESENTATION ( 'D032E', ( #129, #1 ), #42 ) ;
#89 = UNCERTAINTY_MEASURE_WITH_UNIT (LENGTH_MEASURE( 1.000000000000000100E-005 ), #66, 'distance_accuracy_value', 'NONE');
#90 = UNCERTAINTY_MEASURE_WITH_UNIT (LENGTH_MEASURE( 1.000000000000000100E-005 ), #77, 'distance_accuracy_value', 'NONE');
#91 = CIRCLE ( 'NONE', #51, 0.3125000000000000000 ) ;
#92 = EDGE_CURVE ( 'NONE', #39, #145, #34, .T. ) ;
#93 = EDGE_CURVE ( 'NONE', #39, #40, #91, .T. ) ;
#94 = EDGE_CURVE ( 'NONE', #145, #38, #102, .T. ) ;
#95 = EDGE_CURVE ( 'NONE', #40, #38, #24, .T. ) ;
#96 = EDGE_CURVE ( 'NONE', #40, #39, #103, .T. ) ;
#97 = EDGE_CURVE ( 'NONE', #38, #145, #104, .T. ) ;
#98 = ADVANCED_FACE ( 'NONE', ( #55 ), #16, .F. ) ;
#99 = ADVANCED_FACE ( 'NONE', ( #46 ), #121, .T. ) ;
#100 = ADVANCED_FACE ( 'NONE', ( #7 ), #45, .T. ) ;
#101 = ADVANCED_FACE ( 'NONE', ( #11 ), #12, .T. ) ;
#102 = CIRCLE ( 'NONE', #50, 0.3125000000000000000 ) ;
#103 = CIRCLE ( 'NONE', #49, 0.3125000000000000000 ) ;
#104 = CIRCLE ( 'NONE', #54, 0.3125000000000000000 ) ;
#105 = COLOUR_RGB ( '',0.5686274509803921400, 0.5686274509803921400, 0.5882352941176470800 ) ;
#106 = PRODUCT_DEFINITION ( 'UNKNOWN', '', #86, #125 ) ;
#107 = COLOUR_RGB ( '',0.5686274509803921400, 0.5686274509803921400, 0.5882352941176470800 ) ;
#108 = PRODUCT_RELATED_PRODUCT_CATEGORY ( 'part', '', ( #128 ) ) ;
#109 = SURFACE_STYLE_FILL_AREA ( #110 ) ;
#110 = FILL_AREA_STYLE ('',( #111 ) ) ;
#111 = FILL_AREA_STYLE_COLOUR ( '', #105 ) ;
#112 = DIRECTION ( 'NONE',  ( 0.0000000000000000000, 0.0000000000000000000, -1.000000000000000000 ) ) ;
#113 = DIRECTION ( 'NONE',  ( -0.0000000000000000000, -1.000000000000000000, -0.0000000000000000000 ) ) ;
#114 = CARTESIAN_POINT ( 'NONE',  ( 0.0000000000000000000, 0.03125000000000000000, 0.0000000000000000000 ) ) ;
#115 = DIRECTION ( 'NONE',  ( 0.0000000000000000000, 0.0000000000000000000, -1.000000000000000000 ) ) ;
#116 = DIRECTION ( 'NONE',  ( -0.0000000000000000000, -1.000000000000000000, -0.0000000000000000000 ) ) ;
#117 = CARTESIAN_POINT ( 'NONE',  ( 0.0000000000000000000, 0.03125000000000000000, 0.0000000000000000000 ) ) ;
#118 = DIRECTION ( 'NONE',  ( 0.0000000000000000000, -0.0000000000000000000, 1.000000000000000000 ) ) ;
#119 = DIRECTION ( 'NONE',  ( 0.0000000000000000000, 1.000000000000000000, 0.0000000000000000000 ) ) ;
#120 = CARTESIAN_POINT ( 'NONE',  ( 0.0000000000000000000, 0.03125000000000000000, 0.0000000000000000000 ) ) ;
#121 = PLANE ( 'NONE',  #6 ) ;
#122 = DIRECTION ( 'NONE',  ( 0.0000000000000000000, -0.0000000000000000000, 1.000000000000000000 ) ) ;
#123 = DIRECTION ( 'NONE',  ( 0.0000000000000000000, 1.000000000000000000, 0.0000000000000000000 ) ) ;
#124 = CARTESIAN_POINT ( 'NONE',  ( 0.0000000000000000000, 0.0000000000000000000, 0.0000000000000000000 ) ) ;
#125 = PRODUCT_DEFINITION_CONTEXT ( 'detailed design', #149, 'design' ) ;
#126 = DIMENSIONAL_EXPONENTS ( 1.000000000000000000, 0.0000000000000000000, 0.0000000000000000000, 0.0000000000000000000, 0.0000000000000000000, 0.0000000000000000000, 0.0000000000000000000 ) ;
#127 = DIMENSIONAL_EXPONENTS ( 1.000000000000000000, 0.0000000000000000000, 0.0000000000000000000, 0.0000000000000000000, 0.0000000000000000000, 0.0000000000000000000, 0.0000000000000000000 ) ;
#128 = PRODUCT ( 'D032E', 'D032E', '', ( #84 ) ) ;
#129 = MANIFOLD_SOLID_BREP ( 'Boss-Extrude1', #53 ) ;
#130 = ORIENTED_EDGE ( 'NONE', *, *, #94, .T. ) ;
#131 = ORIENTED_EDGE ( 'NONE', *, *, #93, .F. ) ;
#132 = ORIENTED_EDGE ( 'NONE', *, *, #92, .T. ) ;
#133 = ORIENTED_EDGE ( 'NONE', *, *, #95, .F. ) ;
#134 = ORIENTED_EDGE ( 'NONE', *, *, #92, .F. ) ;
#135 = ORIENTED_EDGE ( 'NONE', *, *, #95, .T. ) ;
#136 = ORIENTED_EDGE ( 'NONE', *, *, #96, .F. ) ;
#137 = ORIENTED_EDGE ( 'NONE', *, *, #97, .T. ) ;
#138 = ORIENTED_EDGE ( 'NONE', *, *, #96, .T. ) ;
#139 = ORIENTED_EDGE ( 'NONE', *, *, #93, .T. ) ;
#140 = ORIENTED_EDGE ( 'NONE', *, *, #97, .F. ) ;
#141 = ORIENTED_EDGE ( 'NONE', *, *, #94, .F. ) ;
#142 = EDGE_LOOP ( 'NONE', ( #138, #139 ) ) ;
#143 = EDGE_LOOP ( 'NONE', ( #140, #141 ) ) ;
#144 = EDGE_LOOP ( 'NONE', ( #134, #136, #135, #137 ) ) ;
#145 = VERTEX_POINT ( 'NONE', #64 ) ;
#146 = EDGE_LOOP ( 'NONE', ( #131, #132, #130, #133 ) ) ;
#147 = PRODUCT_DEFINITION_SHAPE ( 'NONE', 'NONE',  #106 ) ;
#148 = APPLICATION_CONTEXT ( 'automotive_design' ) ;
#149 = APPLICATION_CONTEXT ( 'automotive_design' ) ;
ENDSEC;
END-ISO-10303-21;
