ISO-10303-21;
HEADER;
FILE_DESCRIPTION (( 'STEP AP214' ),
    '1' );
FILE_NAME ('D032F.step',
    '2012-04-20T20:51:01',
    ( '' ),
    ( '' ),
    'SwSTEP 2.0',
    'SolidWorks 2012',
    '' );
FILE_SCHEMA (( 'AUTOMOTIVE_DESIGN' ));
ENDSEC;

DATA;
#1 =( LENGTH_UNIT ( ) NAMED_UNIT ( * ) SI_UNIT ( $, .METRE. ) );
#2 = STYLED_ITEM ( 'NONE', ( #91 ), #123 ) ;
#3 = FACE_OUTER_BOUND ( 'NONE', #58, .T. ) ;
#4 = CYLINDRICAL_SURFACE ( 'NONE', #6, 0.3750000000000000600 ) ;
#5 = LENGTH_MEASURE_WITH_UNIT ( LENGTH_MEASURE( 0.02539999999999999900 ), #81 );
#6 = AXIS2_PLACEMENT_3D ( 'NONE', #144, #143, #142 ) ;
#7 = MECHANICAL_DESIGN_GEOMETRIC_PRESENTATION_REPRESENTATION (  '', ( #17 ), #128 ) ;
#8 = PRESENTATION_LAYER_ASSIGNMENT (  '', '', ( #17 ) ) ;
#9 = LENGTH_MEASURE_WITH_UNIT ( LENGTH_MEASURE( 0.02539999999999999900 ), #70 );
#10 = LENGTH_MEASURE_WITH_UNIT ( LENGTH_MEASURE( 0.02539999999999999900 ), #1 );
#11 = MECHANICAL_DESIGN_GEOMETRIC_PRESENTATION_REPRESENTATION (  '', ( #2 ), #125 ) ;
#12 = AXIS2_PLACEMENT_3D ( 'NONE', #140, #139, #138 ) ;
#13 = FACE_OUTER_BOUND ( 'NONE', #57, .T. ) ;
#14 = PRESENTATION_LAYER_ASSIGNMENT (  '', '', ( #2 ) ) ;
#15 = VECTOR ( 'NONE', #97, 39.37007874015748100 ) ;
#16 = AXIS2_PLACEMENT_3D ( 'NONE', #136, #135, #134 ) ;
#17 = STYLED_ITEM ( 'NONE', ( #80 ), #130 ) ;
#18 = DIRECTION ( 'NONE',  ( 0.0000000000000000000, 0.0000000000000000000, 1.000000000000000000 ) ) ;
#19 = DIRECTION ( 'NONE',  ( 0.0000000000000000000, 1.000000000000000000, 0.0000000000000000000 ) ) ;
#20 = CARTESIAN_POINT ( 'NONE',  ( 0.0000000000000000000, 0.03125000000000000000, 0.0000000000000000000 ) ) ;
#21 = DIRECTION ( 'NONE',  ( 0.0000000000000000000, 0.0000000000000000000, 1.000000000000000000 ) ) ;
#22 = DIRECTION ( 'NONE',  ( 0.0000000000000000000, 1.000000000000000000, 0.0000000000000000000 ) ) ;
#23 = CARTESIAN_POINT ( 'NONE',  ( 0.0000000000000000000, 0.0000000000000000000, 0.0000000000000000000 ) ) ;
#24 = DIRECTION ( 'NONE',  ( 0.0000000000000000000, 0.0000000000000000000, 1.000000000000000000 ) ) ;
#25 = DIRECTION ( 'NONE',  ( 0.0000000000000000000, 1.000000000000000000, 0.0000000000000000000 ) ) ;
#26 = CARTESIAN_POINT ( 'NONE',  ( 0.0000000000000000000, 0.03125000000000000000, 0.0000000000000000000 ) ) ;
#27 = DIRECTION ( 'NONE',  ( 0.0000000000000000000, 0.0000000000000000000, 1.000000000000000000 ) ) ;
#28 = DIRECTION ( 'NONE',  ( 0.0000000000000000000, 1.000000000000000000, 0.0000000000000000000 ) ) ;
#29 = CARTESIAN_POINT ( 'NONE',  ( 0.0000000000000000000, 0.0000000000000000000, 0.0000000000000000000 ) ) ;
#30 = DIRECTION ( 'NONE',  ( -0.0000000000000000000, -1.000000000000000000, -0.0000000000000000000 ) ) ;
#31 = CARTESIAN_POINT ( 'NONE',  ( 0.0000000000000000000, 0.03125000000000000000, -0.3750000000000000600 ) ) ;
#32 = LINE ( 'NONE', #31, #43 ) ;
#33 = CARTESIAN_POINT ( 'NONE',  ( 4.592425496802575500E-017, 0.03125000000000000000, 0.3750000000000000600 ) ) ;
#34 = CARTESIAN_POINT ( 'NONE',  ( 0.0000000000000000000, 0.03125000000000000000, -0.3750000000000000600 ) ) ;
#35 = CARTESIAN_POINT ( 'NONE',  ( 0.0000000000000000000, 0.0000000000000000000, -0.3750000000000000600 ) ) ;
#36 = CARTESIAN_POINT ( 'NONE',  ( 4.592425496802575500E-017, 0.0000000000000000000, 0.3750000000000000600 ) ) ;
#37 = VERTEX_POINT ( 'NONE', #36 ) ;
#38 = VERTEX_POINT ( 'NONE', #35 ) ;
#39 = VERTEX_POINT ( 'NONE', #34 ) ;
#40 = ORIENTED_EDGE ( 'NONE', *, *, #100, .F. ) ;
#41 = VERTEX_POINT ( 'NONE', #33 ) ;
#42 = ORIENTED_EDGE ( 'NONE', *, *, #103, .F. ) ;
#43 = VECTOR ( 'NONE', #30, 39.37007874015748100 ) ;
#44 = CYLINDRICAL_SURFACE ( 'NONE', #47, 0.3750000000000000600 ) ;
#45 = FACE_OUTER_BOUND ( 'NONE', #56, .T. ) ;
#46 = AXIS2_PLACEMENT_3D ( 'NONE', #29, #28, #27 ) ;
#47 = AXIS2_PLACEMENT_3D ( 'NONE', #147, #146, #145 ) ;
#48 = CLOSED_SHELL ( 'NONE', ( #105, #104, #107, #106 ) ) ;
#49 = AXIS2_PLACEMENT_3D ( 'NONE', #23, #22, #21 ) ;
#50 = AXIS2_PLACEMENT_3D ( 'NONE', #20, #19, #18 ) ;
#51 = FACE_OUTER_BOUND ( 'NONE', #55, .T. ) ;
#52 = AXIS2_PLACEMENT_3D ( 'NONE', #26, #25, #24 ) ;
#53 = ORIENTED_EDGE ( 'NONE', *, *, #101, .T. ) ;
#54 = ORIENTED_EDGE ( 'NONE', *, *, #102, .F. ) ;
#55 = EDGE_LOOP ( 'NONE', ( #62, #63, #64, #65 ) ) ;
#56 = EDGE_LOOP ( 'NONE', ( #42, #60, #59, #61 ) ) ;
#57 = EDGE_LOOP ( 'NONE', ( #53, #66 ) ) ;
#58 = EDGE_LOOP ( 'NONE', ( #54, #40 ) ) ;
#59 = ORIENTED_EDGE ( 'NONE', *, *, #100, .T. ) ;
#60 = ORIENTED_EDGE ( 'NONE', *, *, #108, .T. ) ;
#61 = ORIENTED_EDGE ( 'NONE', *, *, #98, .F. ) ;
#62 = ORIENTED_EDGE ( 'NONE', *, *, #108, .F. ) ;
#63 = ORIENTED_EDGE ( 'NONE', *, *, #101, .F. ) ;
#64 = ORIENTED_EDGE ( 'NONE', *, *, #98, .T. ) ;
#65 = ORIENTED_EDGE ( 'NONE', *, *, #102, .T. ) ;
#66 = ORIENTED_EDGE ( 'NONE', *, *, #103, .T. ) ;
#67 =( CONVERSION_BASED_UNIT ( 'INCH', #10 ) LENGTH_UNIT ( ) NAMED_UNIT ( #118 ) );
#68 =( NAMED_UNIT ( * ) PLANE_ANGLE_UNIT ( ) SI_UNIT ( $, .RADIAN. ) );
#69 =( NAMED_UNIT ( * ) SI_UNIT ( $, .STERADIAN. ) SOLID_ANGLE_UNIT ( ) );
#70 =( LENGTH_UNIT ( ) NAMED_UNIT ( * ) SI_UNIT ( $, .METRE. ) );
#71 =( CONVERSION_BASED_UNIT ( 'INCH', #9 ) LENGTH_UNIT ( ) NAMED_UNIT ( #119 ) );
#72 =( NAMED_UNIT ( * ) PLANE_ANGLE_UNIT ( ) SI_UNIT ( $, .RADIAN. ) );
#73 =( NAMED_UNIT ( * ) SI_UNIT ( $, .STERADIAN. ) SOLID_ANGLE_UNIT ( ) );
#74 = APPLICATION_PROTOCOL_DEFINITION ( 'draft international standard', 'automotive_design', 1998, #149 ) ;
#75 = FILL_AREA_STYLE_COLOUR ( '', #113 ) ;
#76 = FILL_AREA_STYLE ('',( #75 ) ) ;
#77 = SURFACE_STYLE_FILL_AREA ( #76 ) ;
#78 = SURFACE_SIDE_STYLE ('',( #77 ) ) ;
#79 = SURFACE_STYLE_USAGE ( .BOTH. , #78 ) ;
#80 = PRESENTATION_STYLE_ASSIGNMENT (( #79 ) ) ;
#81 =( LENGTH_UNIT ( ) NAMED_UNIT ( * ) SI_UNIT ( $, .METRE. ) );
#82 =( CONVERSION_BASED_UNIT ( 'INCH', #5 ) LENGTH_UNIT ( ) NAMED_UNIT ( #120 ) );
#83 =( NAMED_UNIT ( * ) PLANE_ANGLE_UNIT ( ) SI_UNIT ( $, .RADIAN. ) );
#84 =( NAMED_UNIT ( * ) SI_UNIT ( $, .STERADIAN. ) SOLID_ANGLE_UNIT ( ) );
#85 = CARTESIAN_POINT ( 'NONE',  ( 0.0000000000000000000, 0.0000000000000000000, 0.0000000000000000000 ) ) ;
#86 = DIRECTION ( 'NONE',  ( 0.0000000000000000000, 0.0000000000000000000, 1.000000000000000000 ) ) ;
#87 = DIRECTION ( 'NONE',  ( 1.000000000000000000, 0.0000000000000000000, 0.0000000000000000000 ) ) ;
#88 = SHAPE_DEFINITION_REPRESENTATION ( #124, #130 ) ;
#89 = PRODUCT_CONTEXT ( 'NONE', #149, 'mechanical' ) ;
#90 = APPLICATION_PROTOCOL_DEFINITION ( 'draft international standard', 'automotive_design', 1998, #148 ) ;
#91 = PRESENTATION_STYLE_ASSIGNMENT (( #92 ) ) ;
#92 = SURFACE_STYLE_USAGE ( .BOTH. , #93 ) ;
#93 = SURFACE_SIDE_STYLE ('',( #94 ) ) ;
#94 = SURFACE_STYLE_FILL_AREA ( #95 ) ;
#95 = FILL_AREA_STYLE ('',( #96 ) ) ;
#96 = FILL_AREA_STYLE_COLOUR ( '', #110 ) ;
#97 = DIRECTION ( 'NONE',  ( -0.0000000000000000000, -1.000000000000000000, -0.0000000000000000000 ) ) ;
#98 = EDGE_CURVE ( 'NONE', #39, #38, #32, .T. ) ;
#99 = CIRCLE ( 'NONE', #52, 0.3750000000000000600 ) ;
#100 = EDGE_CURVE ( 'NONE', #37, #38, #109, .T. ) ;
#101 = EDGE_CURVE ( 'NONE', #39, #41, #99, .T. ) ;
#102 = EDGE_CURVE ( 'NONE', #38, #37, #112, .T. ) ;
#103 = EDGE_CURVE ( 'NONE', #41, #39, #111, .T. ) ;
#104 = ADVANCED_FACE ( 'NONE', ( #51 ), #44, .T. ) ;
#105 = ADVANCED_FACE ( 'NONE', ( #45 ), #4, .T. ) ;
#106 = ADVANCED_FACE ( 'NONE', ( #3 ), #141, .F. ) ;
#107 = ADVANCED_FACE ( 'NONE', ( #13 ), #137, .T. ) ;
#108 = EDGE_CURVE ( 'NONE', #41, #37, #133, .T. ) ;
#109 = CIRCLE ( 'NONE', #46, 0.3750000000000000600 ) ;
#110 = COLOUR_RGB ( '',0.5686274509803921400, 0.5686274509803921400, 0.5882352941176470800 ) ;
#111 = CIRCLE ( 'NONE', #50, 0.3750000000000000600 ) ;
#112 = CIRCLE ( 'NONE', #49, 0.3750000000000000600 ) ;
#113 = COLOUR_RGB ( '',0.5686274509803921400, 0.5686274509803921400, 0.5882352941176470800 ) ;
#114 = PRODUCT_DEFINITION ( 'UNKNOWN', '', #116, #122 ) ;
#115 = PRODUCT_RELATED_PRODUCT_CATEGORY ( 'part', '', ( #121 ) ) ;
#116 = PRODUCT_DEFINITION_FORMATION_WITH_SPECIFIED_SOURCE ( 'ANY', '', #121, .NOT_KNOWN. ) ;
#117 = AXIS2_PLACEMENT_3D ( 'NONE', #85, #86, #87 ) ;
#118 = DIMENSIONAL_EXPONENTS ( 1.000000000000000000, 0.0000000000000000000, 0.0000000000000000000, 0.0000000000000000000, 0.0000000000000000000, 0.0000000000000000000, 0.0000000000000000000 ) ;
#119 = DIMENSIONAL_EXPONENTS ( 1.000000000000000000, 0.0000000000000000000, 0.0000000000000000000, 0.0000000000000000000, 0.0000000000000000000, 0.0000000000000000000, 0.0000000000000000000 ) ;
#120 = DIMENSIONAL_EXPONENTS ( 1.000000000000000000, 0.0000000000000000000, 0.0000000000000000000, 0.0000000000000000000, 0.0000000000000000000, 0.0000000000000000000, 0.0000000000000000000 ) ;
#121 = PRODUCT ( 'D032F', 'D032F', '', ( #89 ) ) ;
#122 = PRODUCT_DEFINITION_CONTEXT ( 'detailed design', #148, 'design' ) ;
#123 = MANIFOLD_SOLID_BREP ( 'Boss-Extrude1', #48 ) ;
#124 = PRODUCT_DEFINITION_SHAPE ( 'NONE', 'NONE',  #114 ) ;
#125 =( GEOMETRIC_REPRESENTATION_CONTEXT ( 3 ) GLOBAL_UNCERTAINTY_ASSIGNED_CONTEXT ( ( #131 ) ) GLOBAL_UNIT_ASSIGNED_CONTEXT ( ( #67, #68, #69 ) ) REPRESENTATION_CONTEXT ( 'NONE', 'WORKASPACE' ) );
#126 =( GEOMETRIC_REPRESENTATION_CONTEXT ( 3 ) GLOBAL_UNCERTAINTY_ASSIGNED_CONTEXT ( ( #127 ) ) GLOBAL_UNIT_ASSIGNED_CONTEXT ( ( #71, #72, #73 ) ) REPRESENTATION_CONTEXT ( 'NONE', 'WORKASPACE' ) );
#127 = UNCERTAINTY_MEASURE_WITH_UNIT (LENGTH_MEASURE( 1.000000000000000100E-005 ), #71, 'distance_accuracy_value', 'NONE');
#128 =( GEOMETRIC_REPRESENTATION_CONTEXT ( 3 ) GLOBAL_UNCERTAINTY_ASSIGNED_CONTEXT ( ( #129 ) ) GLOBAL_UNIT_ASSIGNED_CONTEXT ( ( #82, #83, #84 ) ) REPRESENTATION_CONTEXT ( 'NONE', 'WORKASPACE' ) );
#129 = UNCERTAINTY_MEASURE_WITH_UNIT (LENGTH_MEASURE( 1.000000000000000100E-005 ), #82, 'distance_accuracy_value', 'NONE');
#130 = ADVANCED_BREP_SHAPE_REPRESENTATION ( 'D032F', ( #123, #117 ), #126 ) ;
#131 = UNCERTAINTY_MEASURE_WITH_UNIT (LENGTH_MEASURE( 1.000000000000000100E-005 ), #67, 'distance_accuracy_value', 'NONE');
#132 = CARTESIAN_POINT ( 'NONE',  ( 4.592425496802575500E-017, 0.03125000000000000000, 0.3750000000000000600 ) ) ;
#133 = LINE ( 'NONE', #132, #15 ) ;
#134 = DIRECTION ( 'NONE',  ( 0.0000000000000000000, -0.0000000000000000000, 1.000000000000000000 ) ) ;
#135 = DIRECTION ( 'NONE',  ( 0.0000000000000000000, 1.000000000000000000, 0.0000000000000000000 ) ) ;
#136 = CARTESIAN_POINT ( 'NONE',  ( 0.0000000000000000000, 0.03125000000000000000, 0.0000000000000000000 ) ) ;
#137 = PLANE ( 'NONE',  #16 ) ;
#138 = DIRECTION ( 'NONE',  ( 0.0000000000000000000, -0.0000000000000000000, 1.000000000000000000 ) ) ;
#139 = DIRECTION ( 'NONE',  ( 0.0000000000000000000, 1.000000000000000000, 0.0000000000000000000 ) ) ;
#140 = CARTESIAN_POINT ( 'NONE',  ( 0.0000000000000000000, 0.0000000000000000000, 0.0000000000000000000 ) ) ;
#141 = PLANE ( 'NONE',  #12 ) ;
#142 = DIRECTION ( 'NONE',  ( 0.0000000000000000000, 0.0000000000000000000, -1.000000000000000000 ) ) ;
#143 = DIRECTION ( 'NONE',  ( -0.0000000000000000000, -1.000000000000000000, -0.0000000000000000000 ) ) ;
#144 = CARTESIAN_POINT ( 'NONE',  ( 0.0000000000000000000, 0.03125000000000000000, 0.0000000000000000000 ) ) ;
#145 = DIRECTION ( 'NONE',  ( 0.0000000000000000000, 0.0000000000000000000, -1.000000000000000000 ) ) ;
#146 = DIRECTION ( 'NONE',  ( -0.0000000000000000000, -1.000000000000000000, -0.0000000000000000000 ) ) ;
#147 = CARTESIAN_POINT ( 'NONE',  ( 0.0000000000000000000, 0.03125000000000000000, 0.0000000000000000000 ) ) ;
#148 = APPLICATION_CONTEXT ( 'automotive_design' ) ;
#149 = APPLICATION_CONTEXT ( 'automotive_design' ) ;
ENDSEC;
END-ISO-10303-21;
