ISO-10303-21;
HEADER;
FILE_DESCRIPTION (( 'STEP AP214' ),
    '1' );
FILE_NAME ('D040B.step',
    '2012-04-20T20:51:15',
    ( '' ),
    ( '' ),
    'SwSTEP 2.0',
    'SolidWorks 2012',
    '' );
FILE_SCHEMA (( 'AUTOMOTIVE_DESIGN' ));
ENDSEC;

DATA;
#1 = ADVANCED_BREP_SHAPE_REPRESENTATION ( 'D040B', ( #19, #83 ), #137 ) ;
#2 = UNCERTAINTY_MEASURE_WITH_UNIT (LENGTH_MEASURE( 1.000000000000000100E-005 ), #113, 'distance_accuracy_value', 'NONE');
#3 = UNCERTAINTY_MEASURE_WITH_UNIT (LENGTH_MEASURE( 1.000000000000000100E-005 ), #86, 'distance_accuracy_value', 'NONE');
#4 = COLOUR_RGB ( '',0.5686274509803921400, 0.5686274509803921400, 0.5882352941176470800 ) ;
#5 = ADVANCED_FACE ( 'NONE', ( #37 ), #56, .F. ) ;
#6 = ADVANCED_FACE ( 'NONE', ( #34 ), #60, .T. ) ;
#7 = ADVANCED_FACE ( 'NONE', ( #39 ), #41, .T. ) ;
#8 = EDGE_CURVE ( 'NONE', #129, #131, #67, .T. ) ;
#9 = EDGE_CURVE ( 'NONE', #129, #130, #14, .T. ) ;
#10 = EDGE_CURVE ( 'NONE', #131, #132, #15, .T. ) ;
#11 = EDGE_CURVE ( 'NONE', #130, #132, #77, .T. ) ;
#12 = EDGE_CURVE ( 'NONE', #130, #129, #16, .T. ) ;
#13 = EDGE_CURVE ( 'NONE', #132, #131, #17, .T. ) ;
#14 = CIRCLE ( 'NONE', #38, 0.1250000000000000000 ) ;
#15 = CIRCLE ( 'NONE', #142, 0.1250000000000000000 ) ;
#16 = CIRCLE ( 'NONE', #144, 0.1250000000000000000 ) ;
#17 = CIRCLE ( 'NONE', #42, 0.1250000000000000000 ) ;
#18 = COLOUR_RGB ( '',0.5686274509803921400, 0.5686274509803921400, 0.5882352941176470800 ) ;
#19 = MANIFOLD_SOLID_BREP ( 'Boss-Extrude1', #35 ) ;
#20 = PRODUCT_DEFINITION_CONTEXT ( 'detailed design', #81, 'design' ) ;
#21 = PRODUCT_DEFINITION_SHAPE ( 'NONE', 'NONE',  #24 ) ;
#22 = AXIS2_PLACEMENT_3D ( 'NONE', #105, #116, #117 ) ;
#23 = LENGTH_MEASURE_WITH_UNIT ( LENGTH_MEASURE( 0.02539999999999999900 ), #85 );
#24 = PRODUCT_DEFINITION ( 'UNKNOWN', '', #84, #20 ) ;
#25 = PRODUCT_RELATED_PRODUCT_CATEGORY ( 'part', '', ( #31 ) ) ;
#26 = PRESENTATION_LAYER_ASSIGNMENT (  '', '', ( #79 ) ) ;
#27 = UNCERTAINTY_MEASURE_WITH_UNIT (LENGTH_MEASURE( 1.000000000000000100E-005 ), #96, 'distance_accuracy_value', 'NONE');
#28 = DIMENSIONAL_EXPONENTS ( 1.000000000000000000, 0.0000000000000000000, 0.0000000000000000000, 0.0000000000000000000, 0.0000000000000000000, 0.0000000000000000000, 0.0000000000000000000 ) ;
#29 = DIMENSIONAL_EXPONENTS ( 1.000000000000000000, 0.0000000000000000000, 0.0000000000000000000, 0.0000000000000000000, 0.0000000000000000000, 0.0000000000000000000, 0.0000000000000000000 ) ;
#30 = DIMENSIONAL_EXPONENTS ( 1.000000000000000000, 0.0000000000000000000, 0.0000000000000000000, 0.0000000000000000000, 0.0000000000000000000, 0.0000000000000000000, 0.0000000000000000000 ) ;
#31 = PRODUCT ( 'D040B', 'D040B', '', ( #127 ) ) ;
#32 = ADVANCED_FACE ( 'NONE', ( #148 ), #143, .T. ) ;
#33 = AXIS2_PLACEMENT_3D ( 'NONE', #64, #65, #66 ) ;
#34 = FACE_OUTER_BOUND ( 'NONE', #135, .T. ) ;
#35 = CLOSED_SHELL ( 'NONE', ( #7, #32, #6, #5 ) ) ;
#36 = AXIS2_PLACEMENT_3D ( 'NONE', #57, #58, #59 ) ;
#37 = FACE_OUTER_BOUND ( 'NONE', #43, .T. ) ;
#38 = AXIS2_PLACEMENT_3D ( 'NONE', #70, #71, #72 ) ;
#39 = FACE_OUTER_BOUND ( 'NONE', #134, .T. ) ;
#40 = AXIS2_PLACEMENT_3D ( 'NONE', #61, #62, #63 ) ;
#41 = CYLINDRICAL_SURFACE ( 'NONE', #33, 0.1250000000000000000 ) ;
#42 = AXIS2_PLACEMENT_3D ( 'NONE', #102, #103, #104 ) ;
#43 = EDGE_LOOP ( 'NONE', ( #54, #55 ) ) ;
#44 = ORIENTED_EDGE ( 'NONE', *, *, #9, .F. ) ;
#45 = ORIENTED_EDGE ( 'NONE', *, *, #10, .T. ) ;
#46 = ORIENTED_EDGE ( 'NONE', *, *, #8, .T. ) ;
#47 = ORIENTED_EDGE ( 'NONE', *, *, #11, .F. ) ;
#48 = ORIENTED_EDGE ( 'NONE', *, *, #8, .F. ) ;
#49 = ORIENTED_EDGE ( 'NONE', *, *, #11, .T. ) ;
#50 = ORIENTED_EDGE ( 'NONE', *, *, #12, .F. ) ;
#51 = ORIENTED_EDGE ( 'NONE', *, *, #13, .T. ) ;
#52 = ORIENTED_EDGE ( 'NONE', *, *, #12, .T. ) ;
#53 = ORIENTED_EDGE ( 'NONE', *, *, #9, .T. ) ;
#54 = ORIENTED_EDGE ( 'NONE', *, *, #13, .F. ) ;
#55 = ORIENTED_EDGE ( 'NONE', *, *, #10, .F. ) ;
#56 = PLANE ( 'NONE',  #36 ) ;
#57 = CARTESIAN_POINT ( 'NONE',  ( 0.0000000000000000000, 0.0000000000000000000, 0.0000000000000000000 ) ) ;
#58 = DIRECTION ( 'NONE',  ( 0.0000000000000000000, 1.000000000000000000, 0.0000000000000000000 ) ) ;
#59 = DIRECTION ( 'NONE',  ( 0.0000000000000000000, -0.0000000000000000000, 1.000000000000000000 ) ) ;
#60 = PLANE ( 'NONE',  #40 ) ;
#61 = CARTESIAN_POINT ( 'NONE',  ( 0.0000000000000000000, 0.04000000000000000100, 0.0000000000000000000 ) ) ;
#62 = DIRECTION ( 'NONE',  ( 0.0000000000000000000, 1.000000000000000000, 0.0000000000000000000 ) ) ;
#63 = DIRECTION ( 'NONE',  ( 0.0000000000000000000, -0.0000000000000000000, 1.000000000000000000 ) ) ;
#64 = CARTESIAN_POINT ( 'NONE',  ( 0.0000000000000000000, 0.04000000000000000100, 0.0000000000000000000 ) ) ;
#65 = DIRECTION ( 'NONE',  ( -0.0000000000000000000, -1.000000000000000000, -0.0000000000000000000 ) ) ;
#66 = DIRECTION ( 'NONE',  ( 0.0000000000000000000, 0.0000000000000000000, -1.000000000000000000 ) ) ;
#67 = LINE ( 'NONE', #68, #141 ) ;
#68 = CARTESIAN_POINT ( 'NONE',  ( 1.530808498934191500E-017, 0.04000000000000000100, 0.1250000000000000000 ) ) ;
#69 = DIRECTION ( 'NONE',  ( -0.0000000000000000000, -1.000000000000000000, -0.0000000000000000000 ) ) ;
#70 = CARTESIAN_POINT ( 'NONE',  ( 0.0000000000000000000, 0.04000000000000000100, 0.0000000000000000000 ) ) ;
#71 = DIRECTION ( 'NONE',  ( 0.0000000000000000000, 1.000000000000000000, 0.0000000000000000000 ) ) ;
#72 = DIRECTION ( 'NONE',  ( 0.0000000000000000000, 0.0000000000000000000, 1.000000000000000000 ) ) ;
#73 = CARTESIAN_POINT ( 'NONE',  ( 0.0000000000000000000, 0.0000000000000000000, 0.0000000000000000000 ) ) ;
#74 = DIRECTION ( 'NONE',  ( 0.0000000000000000000, 1.000000000000000000, 0.0000000000000000000 ) ) ;
#75 = DIRECTION ( 'NONE',  ( 0.0000000000000000000, 0.0000000000000000000, 1.000000000000000000 ) ) ;
#76 = CARTESIAN_POINT ( 'NONE',  ( 0.0000000000000000000, 0.04000000000000000100, 0.0000000000000000000 ) ) ;
#77 = LINE ( 'NONE', #78, #145 ) ;
#78 = CARTESIAN_POINT ( 'NONE',  ( 0.0000000000000000000, 0.04000000000000000100, -0.1250000000000000000 ) ) ;
#79 = STYLED_ITEM ( 'NONE', ( #94 ), #1 ) ;
#80 = APPLICATION_CONTEXT ( 'automotive_design' ) ;
#81 = APPLICATION_CONTEXT ( 'automotive_design' ) ;
#82 = LENGTH_MEASURE_WITH_UNIT ( LENGTH_MEASURE( 0.02539999999999999900 ), #95 );
#83 = AXIS2_PLACEMENT_3D ( 'NONE', #122, #123, #124 ) ;
#84 = PRODUCT_DEFINITION_FORMATION_WITH_SPECIFIED_SOURCE ( 'ANY', '', #31, .NOT_KNOWN. ) ;
#85 =( LENGTH_UNIT ( ) NAMED_UNIT ( * ) SI_UNIT ( $, .METRE. ) );
#86 =( CONVERSION_BASED_UNIT ( 'INCH', #23 ) LENGTH_UNIT ( ) NAMED_UNIT ( #28 ) );
#87 =( NAMED_UNIT ( * ) PLANE_ANGLE_UNIT ( ) SI_UNIT ( $, .RADIAN. ) );
#88 =( NAMED_UNIT ( * ) SI_UNIT ( $, .STERADIAN. ) SOLID_ANGLE_UNIT ( ) );
#89 = FILL_AREA_STYLE_COLOUR ( '', #4 ) ;
#90 = FILL_AREA_STYLE ('',( #89 ) ) ;
#91 = SURFACE_STYLE_FILL_AREA ( #90 ) ;
#92 = SURFACE_SIDE_STYLE ('',( #91 ) ) ;
#93 = SURFACE_STYLE_USAGE ( .BOTH. , #92 ) ;
#94 = PRESENTATION_STYLE_ASSIGNMENT (( #93 ) ) ;
#95 =( LENGTH_UNIT ( ) NAMED_UNIT ( * ) SI_UNIT ( $, .METRE. ) );
#96 =( CONVERSION_BASED_UNIT ( 'INCH', #82 ) LENGTH_UNIT ( ) NAMED_UNIT ( #30 ) );
#97 =( NAMED_UNIT ( * ) PLANE_ANGLE_UNIT ( ) SI_UNIT ( $, .RADIAN. ) );
#98 =( NAMED_UNIT ( * ) SI_UNIT ( $, .STERADIAN. ) SOLID_ANGLE_UNIT ( ) );
#99 = DIRECTION ( 'NONE',  ( -0.0000000000000000000, -1.000000000000000000, -0.0000000000000000000 ) ) ;
#100 = DIRECTION ( 'NONE',  ( 0.0000000000000000000, 1.000000000000000000, 0.0000000000000000000 ) ) ;
#101 = DIRECTION ( 'NONE',  ( 0.0000000000000000000, 0.0000000000000000000, 1.000000000000000000 ) ) ;
#102 = CARTESIAN_POINT ( 'NONE',  ( 0.0000000000000000000, 0.0000000000000000000, 0.0000000000000000000 ) ) ;
#103 = DIRECTION ( 'NONE',  ( 0.0000000000000000000, 1.000000000000000000, 0.0000000000000000000 ) ) ;
#104 = DIRECTION ( 'NONE',  ( 0.0000000000000000000, 0.0000000000000000000, 1.000000000000000000 ) ) ;
#105 = CARTESIAN_POINT ( 'NONE',  ( 0.0000000000000000000, 0.04000000000000000100, 0.0000000000000000000 ) ) ;
#106 = FILL_AREA_STYLE_COLOUR ( '', #18 ) ;
#107 = FILL_AREA_STYLE ('',( #106 ) ) ;
#108 = SURFACE_STYLE_FILL_AREA ( #107 ) ;
#109 = SURFACE_SIDE_STYLE ('',( #108 ) ) ;
#110 = SURFACE_STYLE_USAGE ( .BOTH. , #109 ) ;
#111 = PRESENTATION_STYLE_ASSIGNMENT (( #110 ) ) ;
#112 =( LENGTH_UNIT ( ) NAMED_UNIT ( * ) SI_UNIT ( $, .METRE. ) );
#113 =( CONVERSION_BASED_UNIT ( 'INCH', #149 ) LENGTH_UNIT ( ) NAMED_UNIT ( #29 ) );
#114 =( NAMED_UNIT ( * ) PLANE_ANGLE_UNIT ( ) SI_UNIT ( $, .RADIAN. ) );
#115 =( NAMED_UNIT ( * ) SI_UNIT ( $, .STERADIAN. ) SOLID_ANGLE_UNIT ( ) );
#116 = DIRECTION ( 'NONE',  ( -0.0000000000000000000, -1.000000000000000000, -0.0000000000000000000 ) ) ;
#117 = DIRECTION ( 'NONE',  ( 0.0000000000000000000, 0.0000000000000000000, -1.000000000000000000 ) ) ;
#118 = CARTESIAN_POINT ( 'NONE',  ( 1.530808498934191500E-017, 0.04000000000000000100, 0.1250000000000000000 ) ) ;
#119 = CARTESIAN_POINT ( 'NONE',  ( 0.0000000000000000000, 0.04000000000000000100, -0.1250000000000000000 ) ) ;
#120 = CARTESIAN_POINT ( 'NONE',  ( 1.530808498934191500E-017, 0.0000000000000000000, 0.1250000000000000000 ) ) ;
#121 = CARTESIAN_POINT ( 'NONE',  ( 0.0000000000000000000, 0.0000000000000000000, -0.1250000000000000000 ) ) ;
#122 = CARTESIAN_POINT ( 'NONE',  ( 0.0000000000000000000, 0.0000000000000000000, 0.0000000000000000000 ) ) ;
#123 = DIRECTION ( 'NONE',  ( 0.0000000000000000000, 0.0000000000000000000, 1.000000000000000000 ) ) ;
#124 = DIRECTION ( 'NONE',  ( 1.000000000000000000, 0.0000000000000000000, 0.0000000000000000000 ) ) ;
#125 = SHAPE_DEFINITION_REPRESENTATION ( #21, #1 ) ;
#126 = APPLICATION_PROTOCOL_DEFINITION ( 'draft international standard', 'automotive_design', 1998, #80 ) ;
#127 = PRODUCT_CONTEXT ( 'NONE', #80, 'mechanical' ) ;
#128 = APPLICATION_PROTOCOL_DEFINITION ( 'draft international standard', 'automotive_design', 1998, #81 ) ;
#129 = VERTEX_POINT ( 'NONE', #118 ) ;
#130 = VERTEX_POINT ( 'NONE', #119 ) ;
#131 = VERTEX_POINT ( 'NONE', #120 ) ;
#132 = VERTEX_POINT ( 'NONE', #121 ) ;
#133 = EDGE_LOOP ( 'NONE', ( #48, #50, #49, #51 ) ) ;
#134 = EDGE_LOOP ( 'NONE', ( #44, #46, #45, #47 ) ) ;
#135 = EDGE_LOOP ( 'NONE', ( #52, #53 ) ) ;
#136 =( GEOMETRIC_REPRESENTATION_CONTEXT ( 3 ) GLOBAL_UNCERTAINTY_ASSIGNED_CONTEXT ( ( #2 ) ) GLOBAL_UNIT_ASSIGNED_CONTEXT ( ( #113, #114, #115 ) ) REPRESENTATION_CONTEXT ( 'NONE', 'WORKASPACE' ) );
#137 =( GEOMETRIC_REPRESENTATION_CONTEXT ( 3 ) GLOBAL_UNCERTAINTY_ASSIGNED_CONTEXT ( ( #3 ) ) GLOBAL_UNIT_ASSIGNED_CONTEXT ( ( #86, #87, #88 ) ) REPRESENTATION_CONTEXT ( 'NONE', 'WORKASPACE' ) );
#138 =( GEOMETRIC_REPRESENTATION_CONTEXT ( 3 ) GLOBAL_UNCERTAINTY_ASSIGNED_CONTEXT ( ( #27 ) ) GLOBAL_UNIT_ASSIGNED_CONTEXT ( ( #96, #97, #98 ) ) REPRESENTATION_CONTEXT ( 'NONE', 'WORKASPACE' ) );
#139 = MECHANICAL_DESIGN_GEOMETRIC_PRESENTATION_REPRESENTATION (  '', ( #79 ), #138 ) ;
#140 = STYLED_ITEM ( 'NONE', ( #111 ), #19 ) ;
#141 = VECTOR ( 'NONE', #69, 39.37007874015748100 ) ;
#142 = AXIS2_PLACEMENT_3D ( 'NONE', #73, #74, #75 ) ;
#143 = CYLINDRICAL_SURFACE ( 'NONE', #22, 0.1250000000000000000 ) ;
#144 = AXIS2_PLACEMENT_3D ( 'NONE', #76, #100, #101 ) ;
#145 = VECTOR ( 'NONE', #99, 39.37007874015748100 ) ;
#146 = PRESENTATION_LAYER_ASSIGNMENT (  '', '', ( #140 ) ) ;
#147 = MECHANICAL_DESIGN_GEOMETRIC_PRESENTATION_REPRESENTATION (  '', ( #140 ), #136 ) ;
#148 = FACE_OUTER_BOUND ( 'NONE', #133, .T. ) ;
#149 = LENGTH_MEASURE_WITH_UNIT ( LENGTH_MEASURE( 0.02539999999999999900 ), #112 );
ENDSEC;
END-ISO-10303-21;
