ISO-10303-21;
HEADER;
FILE_DESCRIPTION (( 'STEP AP214' ),
    '1' );
FILE_NAME ('D063A.step',
    '2012-04-20T20:51:23',
    ( '' ),
    ( '' ),
    'SwSTEP 2.0',
    'SolidWorks 2012',
    '' );
FILE_SCHEMA (( 'AUTOMOTIVE_DESIGN' ));
ENDSEC;

DATA;
#1 = EDGE_CURVE ( 'NONE', #132, #131, #18, .T. ) ;
#2 = EDGE_CURVE ( 'NONE', #88, #131, #97, .T. ) ;
#3 = EDGE_CURVE ( 'NONE', #88, #87, #6, .T. ) ;
#4 = EDGE_CURVE ( 'NONE', #131, #132, #7, .T. ) ;
#5 = EDGE_CURVE ( 'NONE', #87, #132, #106, .T. ) ;
#6 = CIRCLE ( 'NONE', #73, 0.06250000000000002800 ) ;
#7 = CIRCLE ( 'NONE', #75, 0.06250000000000002800 ) ;
#8 = CIRCLE ( 'NONE', #32, 0.06250000000000002800 ) ;
#9 = COLOUR_RGB ( '',0.5686274509803921400, 0.5686274509803921400, 0.5882352941176470800 ) ;
#10 = COLOUR_RGB ( '',0.5686274509803921400, 0.5686274509803921400, 0.5882352941176470800 ) ;
#11 = CARTESIAN_POINT ( 'NONE',  ( 0.0000000000000000000, 0.0000000000000000000, 0.0000000000000000000 ) ) ;
#12 = DIRECTION ( 'NONE',  ( 0.0000000000000000000, 0.0000000000000000000, 1.000000000000000000 ) ) ;
#13 = DIRECTION ( 'NONE',  ( 1.000000000000000000, 0.0000000000000000000, 0.0000000000000000000 ) ) ;
#14 = SHAPE_DEFINITION_REPRESENTATION ( #39, #67 ) ;
#15 = APPLICATION_PROTOCOL_DEFINITION ( 'draft international standard', 'automotive_design', 1998, #29 ) ;
#16 = PRODUCT_CONTEXT ( 'NONE', #29, 'mechanical' ) ;
#17 = APPLICATION_PROTOCOL_DEFINITION ( 'draft international standard', 'automotive_design', 1998, #30 ) ;
#18 = CIRCLE ( 'NONE', #71, 0.06250000000000002800 ) ;
#19 = ADVANCED_FACE ( 'NONE', ( #68 ), #143, .T. ) ;
#20 = ADVANCED_FACE ( 'NONE', ( #70 ), #146, .T. ) ;
#21 = ADVANCED_FACE ( 'NONE', ( #144 ), #114, .F. ) ;
#22 = ADVANCED_FACE ( 'NONE', ( #147 ), #43, .T. ) ;
#23 = EDGE_CURVE ( 'NONE', #87, #88, #8, .T. ) ;
#24 = PRODUCT_DEFINITION ( 'UNKNOWN', '', #140, #38 ) ;
#25 = PRODUCT_RELATED_PRODUCT_CATEGORY ( 'part', '', ( #28 ) ) ;
#26 = DIMENSIONAL_EXPONENTS ( 1.000000000000000000, 0.0000000000000000000, 0.0000000000000000000, 0.0000000000000000000, 0.0000000000000000000, 0.0000000000000000000, 0.0000000000000000000 ) ;
#27 = DIMENSIONAL_EXPONENTS ( 1.000000000000000000, 0.0000000000000000000, 0.0000000000000000000, 0.0000000000000000000, 0.0000000000000000000, 0.0000000000000000000, 0.0000000000000000000 ) ;
#28 = PRODUCT ( 'D063A', 'D063A', '', ( #16 ) ) ;
#29 = APPLICATION_CONTEXT ( 'automotive_design' ) ;
#30 = APPLICATION_CONTEXT ( 'automotive_design' ) ;
#31 = MECHANICAL_DESIGN_GEOMETRIC_PRESENTATION_REPRESENTATION (  '', ( #148 ), #76 ) ;
#32 = AXIS2_PLACEMENT_3D ( 'NONE', #47, #48, #49 ) ;
#33 = LENGTH_MEASURE_WITH_UNIT ( LENGTH_MEASURE( 0.02539999999999999900 ), #115 );
#34 = AXIS2_PLACEMENT_3D ( 'NONE', #44, #45, #46 ) ;
#35 = PRESENTATION_LAYER_ASSIGNMENT (  '', '', ( #148 ) ) ;
#36 = DIMENSIONAL_EXPONENTS ( 1.000000000000000000, 0.0000000000000000000, 0.0000000000000000000, 0.0000000000000000000, 0.0000000000000000000, 0.0000000000000000000, 0.0000000000000000000 ) ;
#37 = MANIFOLD_SOLID_BREP ( 'Boss-Extrude1', #69 ) ;
#38 = PRODUCT_DEFINITION_CONTEXT ( 'detailed design', #30, 'design' ) ;
#39 = PRODUCT_DEFINITION_SHAPE ( 'NONE', 'NONE',  #24 ) ;
#40 = CARTESIAN_POINT ( 'NONE',  ( 0.0000000000000000000, 0.0000000000000000000, 0.0000000000000000000 ) ) ;
#41 = DIRECTION ( 'NONE',  ( 0.0000000000000000000, 1.000000000000000000, 0.0000000000000000000 ) ) ;
#42 = DIRECTION ( 'NONE',  ( 0.0000000000000000000, -0.0000000000000000000, 1.000000000000000000 ) ) ;
#43 = PLANE ( 'NONE',  #34 ) ;
#44 = CARTESIAN_POINT ( 'NONE',  ( 0.0000000000000000000, 0.06250000000000000000, 0.0000000000000000000 ) ) ;
#45 = DIRECTION ( 'NONE',  ( 0.0000000000000000000, 1.000000000000000000, 0.0000000000000000000 ) ) ;
#46 = DIRECTION ( 'NONE',  ( 0.0000000000000000000, -0.0000000000000000000, 1.000000000000000000 ) ) ;
#47 = CARTESIAN_POINT ( 'NONE',  ( 0.0000000000000000000, 0.06250000000000000000, 0.0000000000000000000 ) ) ;
#48 = DIRECTION ( 'NONE',  ( 0.0000000000000000000, 1.000000000000000000, 0.0000000000000000000 ) ) ;
#49 = DIRECTION ( 'NONE',  ( 0.0000000000000000000, 0.0000000000000000000, 1.000000000000000000 ) ) ;
#50 = CARTESIAN_POINT ( 'NONE',  ( 7.654042494670960600E-018, 0.06250000000000000000, 0.06250000000000002800 ) ) ;
#51 = FILL_AREA_STYLE_COLOUR ( '', #9 ) ;
#52 = FILL_AREA_STYLE ('',( #51 ) ) ;
#53 = SURFACE_STYLE_FILL_AREA ( #52 ) ;
#54 = SURFACE_SIDE_STYLE ('',( #53 ) ) ;
#55 = SURFACE_STYLE_USAGE ( .BOTH. , #54 ) ;
#56 = PRESENTATION_STYLE_ASSIGNMENT (( #55 ) ) ;
#57 =( LENGTH_UNIT ( ) NAMED_UNIT ( * ) SI_UNIT ( $, .METRE. ) );
#58 =( CONVERSION_BASED_UNIT ( 'INCH', #130 ) LENGTH_UNIT ( ) NAMED_UNIT ( #26 ) );
#59 =( NAMED_UNIT ( * ) PLANE_ANGLE_UNIT ( ) SI_UNIT ( $, .RADIAN. ) );
#60 =( NAMED_UNIT ( * ) SI_UNIT ( $, .STERADIAN. ) SOLID_ANGLE_UNIT ( ) );
#61 = CARTESIAN_POINT ( 'NONE',  ( 0.0000000000000000000, 0.06250000000000000000, -0.06250000000000002800 ) ) ;
#62 = CARTESIAN_POINT ( 'NONE',  ( 0.0000000000000000000, 0.0000000000000000000, -0.06250000000000002800 ) ) ;
#63 = CARTESIAN_POINT ( 'NONE',  ( 7.654042494670960600E-018, 0.0000000000000000000, 0.06250000000000002800 ) ) ;
#64 = UNCERTAINTY_MEASURE_WITH_UNIT (LENGTH_MEASURE( 1.000000000000000100E-005 ), #126, 'distance_accuracy_value', 'NONE');
#65 = UNCERTAINTY_MEASURE_WITH_UNIT (LENGTH_MEASURE( 1.000000000000000100E-005 ), #58, 'distance_accuracy_value', 'NONE');
#66 = UNCERTAINTY_MEASURE_WITH_UNIT (LENGTH_MEASURE( 1.000000000000000100E-005 ), #116, 'distance_accuracy_value', 'NONE');
#67 = ADVANCED_BREP_SHAPE_REPRESENTATION ( 'D063A', ( #37, #139 ), #77 ) ;
#68 = FACE_OUTER_BOUND ( 'NONE', #89, .T. ) ;
#69 = CLOSED_SHELL ( 'NONE', ( #20, #19, #22, #21 ) ) ;
#70 = FACE_OUTER_BOUND ( 'NONE', #90, .T. ) ;
#71 = AXIS2_PLACEMENT_3D ( 'NONE', #93, #94, #95 ) ;
#72 = PRESENTATION_LAYER_ASSIGNMENT (  '', '', ( #129 ) ) ;
#73 = AXIS2_PLACEMENT_3D ( 'NONE', #96, #100, #101 ) ;
#74 = VECTOR ( 'NONE', #99, 39.37007874015748100 ) ;
#75 = AXIS2_PLACEMENT_3D ( 'NONE', #102, #103, #104 ) ;
#76 =( GEOMETRIC_REPRESENTATION_CONTEXT ( 3 ) GLOBAL_UNCERTAINTY_ASSIGNED_CONTEXT ( ( #65 ) ) GLOBAL_UNIT_ASSIGNED_CONTEXT ( ( #58, #59, #60 ) ) REPRESENTATION_CONTEXT ( 'NONE', 'WORKASPACE' ) );
#77 =( GEOMETRIC_REPRESENTATION_CONTEXT ( 3 ) GLOBAL_UNCERTAINTY_ASSIGNED_CONTEXT ( ( #66 ) ) GLOBAL_UNIT_ASSIGNED_CONTEXT ( ( #116, #117, #118 ) ) REPRESENTATION_CONTEXT ( 'NONE', 'WORKASPACE' ) );
#78 =( GEOMETRIC_REPRESENTATION_CONTEXT ( 3 ) GLOBAL_UNCERTAINTY_ASSIGNED_CONTEXT ( ( #64 ) ) GLOBAL_UNIT_ASSIGNED_CONTEXT ( ( #126, #127, #128 ) ) REPRESENTATION_CONTEXT ( 'NONE', 'WORKASPACE' ) );
#79 = ORIENTED_EDGE ( 'NONE', *, *, #5, .F. ) ;
#80 = ORIENTED_EDGE ( 'NONE', *, *, #2, .T. ) ;
#81 = ORIENTED_EDGE ( 'NONE', *, *, #3, .F. ) ;
#82 = ORIENTED_EDGE ( 'NONE', *, *, #4, .T. ) ;
#83 = ORIENTED_EDGE ( 'NONE', *, *, #3, .T. ) ;
#84 = ORIENTED_EDGE ( 'NONE', *, *, #23, .T. ) ;
#85 = ORIENTED_EDGE ( 'NONE', *, *, #4, .F. ) ;
#86 = ORIENTED_EDGE ( 'NONE', *, *, #1, .F. ) ;
#87 = VERTEX_POINT ( 'NONE', #50 ) ;
#88 = VERTEX_POINT ( 'NONE', #61 ) ;
#89 = EDGE_LOOP ( 'NONE', ( #79, #81, #80, #82 ) ) ;
#90 = EDGE_LOOP ( 'NONE', ( #133, #135, #134, #136 ) ) ;
#91 = EDGE_LOOP ( 'NONE', ( #83, #84 ) ) ;
#92 = EDGE_LOOP ( 'NONE', ( #85, #86 ) ) ;
#93 = CARTESIAN_POINT ( 'NONE',  ( 0.0000000000000000000, 0.0000000000000000000, 0.0000000000000000000 ) ) ;
#94 = DIRECTION ( 'NONE',  ( 0.0000000000000000000, 1.000000000000000000, 0.0000000000000000000 ) ) ;
#95 = DIRECTION ( 'NONE',  ( 0.0000000000000000000, 0.0000000000000000000, 1.000000000000000000 ) ) ;
#96 = CARTESIAN_POINT ( 'NONE',  ( 0.0000000000000000000, 0.06250000000000000000, 0.0000000000000000000 ) ) ;
#97 = LINE ( 'NONE', #98, #74 ) ;
#98 = CARTESIAN_POINT ( 'NONE',  ( 0.0000000000000000000, 0.06250000000000000000, -0.06250000000000002800 ) ) ;
#99 = DIRECTION ( 'NONE',  ( -0.0000000000000000000, -1.000000000000000000, -0.0000000000000000000 ) ) ;
#100 = DIRECTION ( 'NONE',  ( 0.0000000000000000000, 1.000000000000000000, 0.0000000000000000000 ) ) ;
#101 = DIRECTION ( 'NONE',  ( 0.0000000000000000000, 0.0000000000000000000, 1.000000000000000000 ) ) ;
#102 = CARTESIAN_POINT ( 'NONE',  ( 0.0000000000000000000, 0.0000000000000000000, 0.0000000000000000000 ) ) ;
#103 = DIRECTION ( 'NONE',  ( 0.0000000000000000000, 1.000000000000000000, 0.0000000000000000000 ) ) ;
#104 = DIRECTION ( 'NONE',  ( 0.0000000000000000000, 0.0000000000000000000, 1.000000000000000000 ) ) ;
#105 = CARTESIAN_POINT ( 'NONE',  ( 0.0000000000000000000, 0.06250000000000000000, 0.0000000000000000000 ) ) ;
#106 = LINE ( 'NONE', #107, #142 ) ;
#107 = CARTESIAN_POINT ( 'NONE',  ( 7.654042494670960600E-018, 0.06250000000000000000, 0.06250000000000002800 ) ) ;
#108 = DIRECTION ( 'NONE',  ( -0.0000000000000000000, -1.000000000000000000, -0.0000000000000000000 ) ) ;
#109 = DIRECTION ( 'NONE',  ( -0.0000000000000000000, -1.000000000000000000, -0.0000000000000000000 ) ) ;
#110 = DIRECTION ( 'NONE',  ( 0.0000000000000000000, 0.0000000000000000000, -1.000000000000000000 ) ) ;
#111 = CARTESIAN_POINT ( 'NONE',  ( 0.0000000000000000000, 0.06250000000000000000, 0.0000000000000000000 ) ) ;
#112 = DIRECTION ( 'NONE',  ( -0.0000000000000000000, -1.000000000000000000, -0.0000000000000000000 ) ) ;
#113 = DIRECTION ( 'NONE',  ( 0.0000000000000000000, 0.0000000000000000000, -1.000000000000000000 ) ) ;
#114 = PLANE ( 'NONE',  #149 ) ;
#115 =( LENGTH_UNIT ( ) NAMED_UNIT ( * ) SI_UNIT ( $, .METRE. ) );
#116 =( CONVERSION_BASED_UNIT ( 'INCH', #33 ) LENGTH_UNIT ( ) NAMED_UNIT ( #36 ) );
#117 =( NAMED_UNIT ( * ) PLANE_ANGLE_UNIT ( ) SI_UNIT ( $, .RADIAN. ) );
#118 =( NAMED_UNIT ( * ) SI_UNIT ( $, .STERADIAN. ) SOLID_ANGLE_UNIT ( ) );
#119 = FILL_AREA_STYLE_COLOUR ( '', #10 ) ;
#120 = FILL_AREA_STYLE ('',( #119 ) ) ;
#121 = SURFACE_STYLE_FILL_AREA ( #120 ) ;
#122 = SURFACE_SIDE_STYLE ('',( #121 ) ) ;
#123 = SURFACE_STYLE_USAGE ( .BOTH. , #122 ) ;
#124 = PRESENTATION_STYLE_ASSIGNMENT (( #123 ) ) ;
#125 =( LENGTH_UNIT ( ) NAMED_UNIT ( * ) SI_UNIT ( $, .METRE. ) );
#126 =( CONVERSION_BASED_UNIT ( 'INCH', #138 ) LENGTH_UNIT ( ) NAMED_UNIT ( #27 ) );
#127 =( NAMED_UNIT ( * ) PLANE_ANGLE_UNIT ( ) SI_UNIT ( $, .RADIAN. ) );
#128 =( NAMED_UNIT ( * ) SI_UNIT ( $, .STERADIAN. ) SOLID_ANGLE_UNIT ( ) );
#129 = STYLED_ITEM ( 'NONE', ( #124 ), #67 ) ;
#130 = LENGTH_MEASURE_WITH_UNIT ( LENGTH_MEASURE( 0.02539999999999999900 ), #57 );
#131 = VERTEX_POINT ( 'NONE', #62 ) ;
#132 = VERTEX_POINT ( 'NONE', #63 ) ;
#133 = ORIENTED_EDGE ( 'NONE', *, *, #23, .F. ) ;
#134 = ORIENTED_EDGE ( 'NONE', *, *, #1, .T. ) ;
#135 = ORIENTED_EDGE ( 'NONE', *, *, #5, .T. ) ;
#136 = ORIENTED_EDGE ( 'NONE', *, *, #2, .F. ) ;
#137 = MECHANICAL_DESIGN_GEOMETRIC_PRESENTATION_REPRESENTATION (  '', ( #129 ), #78 ) ;
#138 = LENGTH_MEASURE_WITH_UNIT ( LENGTH_MEASURE( 0.02539999999999999900 ), #125 );
#139 = AXIS2_PLACEMENT_3D ( 'NONE', #11, #12, #13 ) ;
#140 = PRODUCT_DEFINITION_FORMATION_WITH_SPECIFIED_SOURCE ( 'ANY', '', #28, .NOT_KNOWN. ) ;
#141 = AXIS2_PLACEMENT_3D ( 'NONE', #105, #109, #110 ) ;
#142 = VECTOR ( 'NONE', #108, 39.37007874015748100 ) ;
#143 = CYLINDRICAL_SURFACE ( 'NONE', #141, 0.06250000000000002800 ) ;
#144 = FACE_OUTER_BOUND ( 'NONE', #92, .T. ) ;
#145 = AXIS2_PLACEMENT_3D ( 'NONE', #111, #112, #113 ) ;
#146 = CYLINDRICAL_SURFACE ( 'NONE', #145, 0.06250000000000002800 ) ;
#147 = FACE_OUTER_BOUND ( 'NONE', #91, .T. ) ;
#148 = STYLED_ITEM ( 'NONE', ( #56 ), #37 ) ;
#149 = AXIS2_PLACEMENT_3D ( 'NONE', #40, #41, #42 ) ;
ENDSEC;
END-ISO-10303-21;
