ISO-10303-21;
HEADER;
FILE_DESCRIPTION (( 'STEP AP214' ),
    '1' );
FILE_NAME ('D063B-AU.step',
    '2012-04-20T20:51:32',
    ( '' ),
    ( '' ),
    'SwSTEP 2.0',
    'SolidWorks 2012',
    '' );
FILE_SCHEMA (( 'AUTOMOTIVE_DESIGN' ));
ENDSEC;

DATA;
#1 = UNCERTAINTY_MEASURE_WITH_UNIT (LENGTH_MEASURE( 1.000000000000000100E-005 ), #62, 'distance_accuracy_value', 'NONE');
#2 = UNCERTAINTY_MEASURE_WITH_UNIT (LENGTH_MEASURE( 1.000000000000000100E-005 ), #148, 'distance_accuracy_value', 'NONE');
#3 = ADVANCED_BREP_SHAPE_REPRESENTATION ( 'D063B-AU', ( #28, #127 ), #27 ) ;
#4 = UNCERTAINTY_MEASURE_WITH_UNIT (LENGTH_MEASURE( 1.000000000000000100E-005 ), #138, 'distance_accuracy_value', 'NONE');
#5 = EDGE_CURVE ( 'NONE', #78, #80, #93, .T. ) ;
#6 = EDGE_CURVE ( 'NONE', #77, #78, #17, .T. ) ;
#7 = ADVANCED_FACE ( 'NONE', ( #66 ), #68, .T. ) ;
#8 = ADVANCED_FACE ( 'NONE', ( #69 ), #75, .T. ) ;
#9 = ADVANCED_FACE ( 'NONE', ( #73 ), #105, .F. ) ;
#10 = ADVANCED_FACE ( 'NONE', ( #122 ), #109, .T. ) ;
#11 = EDGE_CURVE ( 'NONE', #77, #79, #43, .T. ) ;
#12 = CIRCLE ( 'NONE', #123, 0.1250000000000000000 ) ;
#13 = CIRCLE ( 'NONE', #119, 0.1250000000000000000 ) ;
#14 = CIRCLE ( 'NONE', #118, 0.1250000000000000000 ) ;
#15 = COLOUR_RGB ( '',0.9686274509803921600, 0.8784313725490196000, 0.5999999999999999800 ) ;
#16 = EDGE_CURVE ( 'NONE', #78, #77, #12, .T. ) ;
#17 = CIRCLE ( 'NONE', #71, 0.1250000000000000000 ) ;
#18 = EDGE_CURVE ( 'NONE', #79, #80, #13, .T. ) ;
#19 = EDGE_CURVE ( 'NONE', #80, #79, #14, .T. ) ;
#20 = APPLICATION_CONTEXT ( 'automotive_design' ) ;
#21 = APPLICATION_CONTEXT ( 'automotive_design' ) ;
#22 = EDGE_LOOP ( 'NONE', ( #83, #84, #81, #92 ) ) ;
#23 = EDGE_LOOP ( 'NONE', ( #91, #89, #88, #87 ) ) ;
#24 = EDGE_LOOP ( 'NONE', ( #82, #85 ) ) ;
#25 =( GEOMETRIC_REPRESENTATION_CONTEXT ( 3 ) GLOBAL_UNCERTAINTY_ASSIGNED_CONTEXT ( ( #2 ) ) GLOBAL_UNIT_ASSIGNED_CONTEXT ( ( #148, #149, #34 ) ) REPRESENTATION_CONTEXT ( 'NONE', 'WORKASPACE' ) );
#26 =( GEOMETRIC_REPRESENTATION_CONTEXT ( 3 ) GLOBAL_UNCERTAINTY_ASSIGNED_CONTEXT ( ( #1 ) ) GLOBAL_UNIT_ASSIGNED_CONTEXT ( ( #62, #63, #64 ) ) REPRESENTATION_CONTEXT ( 'NONE', 'WORKASPACE' ) );
#27 =( GEOMETRIC_REPRESENTATION_CONTEXT ( 3 ) GLOBAL_UNCERTAINTY_ASSIGNED_CONTEXT ( ( #4 ) ) GLOBAL_UNIT_ASSIGNED_CONTEXT ( ( #138, #139, #140 ) ) REPRESENTATION_CONTEXT ( 'NONE', 'WORKASPACE' ) );
#28 = MANIFOLD_SOLID_BREP ( 'Boss-Extrude1', #67 ) ;
#29 = DIMENSIONAL_EXPONENTS ( 1.000000000000000000, 0.0000000000000000000, 0.0000000000000000000, 0.0000000000000000000, 0.0000000000000000000, 0.0000000000000000000, 0.0000000000000000000 ) ;
#30 = DIMENSIONAL_EXPONENTS ( 1.000000000000000000, 0.0000000000000000000, 0.0000000000000000000, 0.0000000000000000000, 0.0000000000000000000, 0.0000000000000000000, 0.0000000000000000000 ) ;
#31 = DIMENSIONAL_EXPONENTS ( 1.000000000000000000, 0.0000000000000000000, 0.0000000000000000000, 0.0000000000000000000, 0.0000000000000000000, 0.0000000000000000000, 0.0000000000000000000 ) ;
#32 = PRODUCT ( 'D063B-AU', 'D063B-AU', '', ( #40 ) ) ;
#33 = PRODUCT_DEFINITION_CONTEXT ( 'detailed design', #21, 'design' ) ;
#34 =( NAMED_UNIT ( * ) SI_UNIT ( $, .STERADIAN. ) SOLID_ANGLE_UNIT ( ) );
#35 = CARTESIAN_POINT ( 'NONE',  ( 0.0000000000000000000, 0.0000000000000000000, 0.0000000000000000000 ) ) ;
#36 = DIRECTION ( 'NONE',  ( 0.0000000000000000000, 0.0000000000000000000, 1.000000000000000000 ) ) ;
#37 = DIRECTION ( 'NONE',  ( 1.000000000000000000, 0.0000000000000000000, 0.0000000000000000000 ) ) ;
#38 = SHAPE_DEFINITION_REPRESENTATION ( #124, #3 ) ;
#39 = APPLICATION_PROTOCOL_DEFINITION ( 'draft international standard', 'automotive_design', 1998, #20 ) ;
#40 = PRODUCT_CONTEXT ( 'NONE', #20, 'mechanical' ) ;
#41 = APPLICATION_PROTOCOL_DEFINITION ( 'draft international standard', 'automotive_design', 1998, #21 ) ;
#42 = DIRECTION ( 'NONE',  ( 0.0000000000000000000, -0.0000000000000000000, 1.000000000000000000 ) ) ;
#43 = LINE ( 'NONE', #44, #113 ) ;
#44 = CARTESIAN_POINT ( 'NONE',  ( 1.530808498934191500E-017, 0.06250000000000000000, 0.1250000000000000000 ) ) ;
#45 = DIRECTION ( 'NONE',  ( -0.0000000000000000000, -1.000000000000000000, -0.0000000000000000000 ) ) ;
#46 = CARTESIAN_POINT ( 'NONE',  ( 0.0000000000000000000, 0.06250000000000000000, 0.0000000000000000000 ) ) ;
#47 = DIRECTION ( 'NONE',  ( 0.0000000000000000000, 1.000000000000000000, 0.0000000000000000000 ) ) ;
#48 = DIRECTION ( 'NONE',  ( 0.0000000000000000000, 0.0000000000000000000, 1.000000000000000000 ) ) ;
#49 = CARTESIAN_POINT ( 'NONE',  ( 0.0000000000000000000, 0.0000000000000000000, 0.0000000000000000000 ) ) ;
#50 = DIRECTION ( 'NONE',  ( 0.0000000000000000000, 1.000000000000000000, 0.0000000000000000000 ) ) ;
#51 = DIRECTION ( 'NONE',  ( 0.0000000000000000000, 0.0000000000000000000, 1.000000000000000000 ) ) ;
#52 = CARTESIAN_POINT ( 'NONE',  ( 0.0000000000000000000, 0.0000000000000000000, 0.0000000000000000000 ) ) ;
#53 = DIRECTION ( 'NONE',  ( 0.0000000000000000000, 1.000000000000000000, 0.0000000000000000000 ) ) ;
#54 = DIRECTION ( 'NONE',  ( 0.0000000000000000000, 0.0000000000000000000, 1.000000000000000000 ) ) ;
#55 = FILL_AREA_STYLE_COLOUR ( '', #15 ) ;
#56 = FILL_AREA_STYLE ('',( #55 ) ) ;
#57 = SURFACE_STYLE_FILL_AREA ( #56 ) ;
#58 = SURFACE_SIDE_STYLE ('',( #57 ) ) ;
#59 = SURFACE_STYLE_USAGE ( .BOTH. , #58 ) ;
#60 = PRESENTATION_STYLE_ASSIGNMENT (( #59 ) ) ;
#61 =( LENGTH_UNIT ( ) NAMED_UNIT ( * ) SI_UNIT ( $, .METRE. ) );
#62 =( CONVERSION_BASED_UNIT ( 'INCH', #112 ) LENGTH_UNIT ( ) NAMED_UNIT ( #30 ) );
#63 =( NAMED_UNIT ( * ) PLANE_ANGLE_UNIT ( ) SI_UNIT ( $, .RADIAN. ) );
#64 =( NAMED_UNIT ( * ) SI_UNIT ( $, .STERADIAN. ) SOLID_ANGLE_UNIT ( ) );
#65 = CARTESIAN_POINT ( 'NONE',  ( 1.530808498934191500E-017, 0.06250000000000000000, 0.1250000000000000000 ) ) ;
#66 = FACE_OUTER_BOUND ( 'NONE', #23, .T. ) ;
#67 = CLOSED_SHELL ( 'NONE', ( #7, #8, #10, #9 ) ) ;
#68 = CYLINDRICAL_SURFACE ( 'NONE', #72, 0.1250000000000000000 ) ;
#69 = FACE_OUTER_BOUND ( 'NONE', #22, .T. ) ;
#70 = VECTOR ( 'NONE', #95, 39.37007874015748100 ) ;
#71 = AXIS2_PLACEMENT_3D ( 'NONE', #96, #97, #98 ) ;
#72 = AXIS2_PLACEMENT_3D ( 'NONE', #99, #100, #101 ) ;
#73 = FACE_OUTER_BOUND ( 'NONE', #76, .T. ) ;
#74 = AXIS2_PLACEMENT_3D ( 'NONE', #102, #103, #104 ) ;
#75 = CYLINDRICAL_SURFACE ( 'NONE', #74, 0.1250000000000000000 ) ;
#76 = EDGE_LOOP ( 'NONE', ( #90, #86 ) ) ;
#77 = VERTEX_POINT ( 'NONE', #65 ) ;
#78 = VERTEX_POINT ( 'NONE', #134 ) ;
#79 = VERTEX_POINT ( 'NONE', #135 ) ;
#80 = VERTEX_POINT ( 'NONE', #136 ) ;
#81 = ORIENTED_EDGE ( 'NONE', *, *, #5, .T. ) ;
#82 = ORIENTED_EDGE ( 'NONE', *, *, #16, .T. ) ;
#83 = ORIENTED_EDGE ( 'NONE', *, *, #11, .F. ) ;
#84 = ORIENTED_EDGE ( 'NONE', *, *, #16, .F. ) ;
#85 = ORIENTED_EDGE ( 'NONE', *, *, #6, .T. ) ;
#86 = ORIENTED_EDGE ( 'NONE', *, *, #18, .F. ) ;
#87 = ORIENTED_EDGE ( 'NONE', *, *, #5, .F. ) ;
#88 = ORIENTED_EDGE ( 'NONE', *, *, #18, .T. ) ;
#89 = ORIENTED_EDGE ( 'NONE', *, *, #11, .T. ) ;
#90 = ORIENTED_EDGE ( 'NONE', *, *, #19, .F. ) ;
#91 = ORIENTED_EDGE ( 'NONE', *, *, #6, .F. ) ;
#92 = ORIENTED_EDGE ( 'NONE', *, *, #19, .T. ) ;
#93 = LINE ( 'NONE', #94, #70 ) ;
#94 = CARTESIAN_POINT ( 'NONE',  ( 0.0000000000000000000, 0.06250000000000000000, -0.1250000000000000000 ) ) ;
#95 = DIRECTION ( 'NONE',  ( -0.0000000000000000000, -1.000000000000000000, -0.0000000000000000000 ) ) ;
#96 = CARTESIAN_POINT ( 'NONE',  ( 0.0000000000000000000, 0.06250000000000000000, 0.0000000000000000000 ) ) ;
#97 = DIRECTION ( 'NONE',  ( 0.0000000000000000000, 1.000000000000000000, 0.0000000000000000000 ) ) ;
#98 = DIRECTION ( 'NONE',  ( 0.0000000000000000000, 0.0000000000000000000, 1.000000000000000000 ) ) ;
#99 = CARTESIAN_POINT ( 'NONE',  ( 0.0000000000000000000, 0.06250000000000000000, 0.0000000000000000000 ) ) ;
#100 = DIRECTION ( 'NONE',  ( -0.0000000000000000000, -1.000000000000000000, -0.0000000000000000000 ) ) ;
#101 = DIRECTION ( 'NONE',  ( 0.0000000000000000000, 0.0000000000000000000, -1.000000000000000000 ) ) ;
#102 = CARTESIAN_POINT ( 'NONE',  ( 0.0000000000000000000, 0.06250000000000000000, 0.0000000000000000000 ) ) ;
#103 = DIRECTION ( 'NONE',  ( -0.0000000000000000000, -1.000000000000000000, -0.0000000000000000000 ) ) ;
#104 = DIRECTION ( 'NONE',  ( 0.0000000000000000000, 0.0000000000000000000, -1.000000000000000000 ) ) ;
#105 = PLANE ( 'NONE',  #115 ) ;
#106 = CARTESIAN_POINT ( 'NONE',  ( 0.0000000000000000000, 0.0000000000000000000, 0.0000000000000000000 ) ) ;
#107 = DIRECTION ( 'NONE',  ( 0.0000000000000000000, 1.000000000000000000, 0.0000000000000000000 ) ) ;
#108 = DIRECTION ( 'NONE',  ( 0.0000000000000000000, -0.0000000000000000000, 1.000000000000000000 ) ) ;
#109 = PLANE ( 'NONE',  #114 ) ;
#110 = CARTESIAN_POINT ( 'NONE',  ( 0.0000000000000000000, 0.06250000000000000000, 0.0000000000000000000 ) ) ;
#111 = DIRECTION ( 'NONE',  ( 0.0000000000000000000, 1.000000000000000000, 0.0000000000000000000 ) ) ;
#112 = LENGTH_MEASURE_WITH_UNIT ( LENGTH_MEASURE( 0.02539999999999999900 ), #61 );
#113 = VECTOR ( 'NONE', #45, 39.37007874015748100 ) ;
#114 = AXIS2_PLACEMENT_3D ( 'NONE', #110, #111, #42 ) ;
#115 = AXIS2_PLACEMENT_3D ( 'NONE', #106, #107, #108 ) ;
#116 = MECHANICAL_DESIGN_GEOMETRIC_PRESENTATION_REPRESENTATION (  '', ( #120 ), #26 ) ;
#117 = LENGTH_MEASURE_WITH_UNIT ( LENGTH_MEASURE( 0.02539999999999999900 ), #137 );
#118 = AXIS2_PLACEMENT_3D ( 'NONE', #52, #53, #54 ) ;
#119 = AXIS2_PLACEMENT_3D ( 'NONE', #49, #50, #51 ) ;
#120 = STYLED_ITEM ( 'NONE', ( #60 ), #28 ) ;
#121 = PRESENTATION_LAYER_ASSIGNMENT (  '', '', ( #120 ) ) ;
#122 = FACE_OUTER_BOUND ( 'NONE', #24, .T. ) ;
#123 = AXIS2_PLACEMENT_3D ( 'NONE', #46, #47, #48 ) ;
#124 = PRODUCT_DEFINITION_SHAPE ( 'NONE', 'NONE',  #131 ) ;
#125 = STYLED_ITEM ( 'NONE', ( #146 ), #3 ) ;
#126 = LENGTH_MEASURE_WITH_UNIT ( LENGTH_MEASURE( 0.02539999999999999900 ), #147 );
#127 = AXIS2_PLACEMENT_3D ( 'NONE', #35, #36, #37 ) ;
#128 = PRESENTATION_LAYER_ASSIGNMENT (  '', '', ( #125 ) ) ;
#129 = MECHANICAL_DESIGN_GEOMETRIC_PRESENTATION_REPRESENTATION (  '', ( #125 ), #25 ) ;
#130 = PRODUCT_DEFINITION_FORMATION_WITH_SPECIFIED_SOURCE ( 'ANY', '', #32, .NOT_KNOWN. ) ;
#131 = PRODUCT_DEFINITION ( 'UNKNOWN', '', #130, #33 ) ;
#132 = COLOUR_RGB ( '',0.9686274509803921600, 0.8784313725490196000, 0.5999999999999999800 ) ;
#133 = PRODUCT_RELATED_PRODUCT_CATEGORY ( 'part', '', ( #32 ) ) ;
#134 = CARTESIAN_POINT ( 'NONE',  ( 0.0000000000000000000, 0.06250000000000000000, -0.1250000000000000000 ) ) ;
#135 = CARTESIAN_POINT ( 'NONE',  ( 1.530808498934191500E-017, 0.0000000000000000000, 0.1250000000000000000 ) ) ;
#136 = CARTESIAN_POINT ( 'NONE',  ( 0.0000000000000000000, 0.0000000000000000000, -0.1250000000000000000 ) ) ;
#137 =( LENGTH_UNIT ( ) NAMED_UNIT ( * ) SI_UNIT ( $, .METRE. ) );
#138 =( CONVERSION_BASED_UNIT ( 'INCH', #117 ) LENGTH_UNIT ( ) NAMED_UNIT ( #29 ) );
#139 =( NAMED_UNIT ( * ) PLANE_ANGLE_UNIT ( ) SI_UNIT ( $, .RADIAN. ) );
#140 =( NAMED_UNIT ( * ) SI_UNIT ( $, .STERADIAN. ) SOLID_ANGLE_UNIT ( ) );
#141 = FILL_AREA_STYLE_COLOUR ( '', #132 ) ;
#142 = FILL_AREA_STYLE ('',( #141 ) ) ;
#143 = SURFACE_STYLE_FILL_AREA ( #142 ) ;
#144 = SURFACE_SIDE_STYLE ('',( #143 ) ) ;
#145 = SURFACE_STYLE_USAGE ( .BOTH. , #144 ) ;
#146 = PRESENTATION_STYLE_ASSIGNMENT (( #145 ) ) ;
#147 =( LENGTH_UNIT ( ) NAMED_UNIT ( * ) SI_UNIT ( $, .METRE. ) );
#148 =( CONVERSION_BASED_UNIT ( 'INCH', #126 ) LENGTH_UNIT ( ) NAMED_UNIT ( #31 ) );
#149 =( NAMED_UNIT ( * ) PLANE_ANGLE_UNIT ( ) SI_UNIT ( $, .RADIAN. ) );
ENDSEC;
END-ISO-10303-21;
