ISO-10303-21;
HEADER;
FILE_DESCRIPTION (( 'STEP AP214' ),
    '1' );
FILE_NAME ('D063B.step',
    '2012-04-20T20:51:37',
    ( '' ),
    ( '' ),
    'SwSTEP 2.0',
    'SolidWorks 2012',
    '' );
FILE_SCHEMA (( 'AUTOMOTIVE_DESIGN' ));
ENDSEC;

DATA;
#1 = UNCERTAINTY_MEASURE_WITH_UNIT (LENGTH_MEASURE( 1.000000000000000100E-005 ), #36, 'distance_accuracy_value', 'NONE');
#2 = UNCERTAINTY_MEASURE_WITH_UNIT (LENGTH_MEASURE( 1.000000000000000100E-005 ), #147, 'distance_accuracy_value', 'NONE');
#3 = UNCERTAINTY_MEASURE_WITH_UNIT (LENGTH_MEASURE( 1.000000000000000100E-005 ), #137, 'distance_accuracy_value', 'NONE');
#4 = ADVANCED_BREP_SHAPE_REPRESENTATION ( 'D063B', ( #5, #62 ), #104 ) ;
#5 = MANIFOLD_SOLID_BREP ( 'Boss-Extrude1', #111 ) ;
#6 = PRODUCT_DEFINITION_CONTEXT ( 'detailed design', #89, 'design' ) ;
#7 = PRODUCT_DEFINITION_SHAPE ( 'NONE', 'NONE',  #68 ) ;
#8 =( NAMED_UNIT ( * ) SI_UNIT ( $, .STERADIAN. ) SOLID_ANGLE_UNIT ( ) );
#9 = SHAPE_DEFINITION_REPRESENTATION ( #7, #4 ) ;
#10 = FILL_AREA_STYLE_COLOUR ( '', #69 ) ;
#11 = FILL_AREA_STYLE ('',( #10 ) ) ;
#12 = SURFACE_STYLE_FILL_AREA ( #11 ) ;
#13 = SURFACE_SIDE_STYLE ('',( #12 ) ) ;
#14 = SURFACE_STYLE_USAGE ( .BOTH. , #13 ) ;
#15 = PRESENTATION_STYLE_ASSIGNMENT (( #14 ) ) ;
#16 =( LENGTH_UNIT ( ) NAMED_UNIT ( * ) SI_UNIT ( $, .METRE. ) );
#17 = AXIS2_PLACEMENT_3D ( 'NONE', #139, #140, #141 ) ;
#18 = CYLINDRICAL_SURFACE ( 'NONE', #17, 0.1250000000000000000 ) ;
#19 = EDGE_LOOP ( 'NONE', ( #81, #83, #82, #84 ) ) ;
#20 = EDGE_LOOP ( 'NONE', ( #77, #79, #78, #80 ) ) ;
#21 = ADVANCED_FACE ( 'NONE', ( #115 ), #126, .T. ) ;
#22 = EDGE_CURVE ( 'NONE', #73, #74, #29, .T. ) ;
#23 = EDGE_CURVE ( 'NONE', #75, #76, #30, .T. ) ;
#24 = EDGE_CURVE ( 'NONE', #74, #76, #101, .T. ) ;
#25 = EDGE_CURVE ( 'NONE', #74, #73, #31, .T. ) ;
#26 = EDGE_CURVE ( 'NONE', #76, #75, #32, .T. ) ;
#27 = EDGE_CURVE ( 'NONE', #73, #75, #49, .T. ) ;
#28 = COLOUR_RGB ( '',0.5686274509803921400, 0.5686274509803921400, 0.5882352941176470800 ) ;
#29 = CIRCLE ( 'NONE', #114, 0.1250000000000000000 ) ;
#30 = CIRCLE ( 'NONE', #120, 0.1250000000000000000 ) ;
#31 = CIRCLE ( 'NONE', #123, 0.1250000000000000000 ) ;
#32 = CIRCLE ( 'NONE', #116, 0.1250000000000000000 ) ;
#33 = DIMENSIONAL_EXPONENTS ( 1.000000000000000000, 0.0000000000000000000, 0.0000000000000000000, 0.0000000000000000000, 0.0000000000000000000, 0.0000000000000000000, 0.0000000000000000000 ) ;
#34 = DIMENSIONAL_EXPONENTS ( 1.000000000000000000, 0.0000000000000000000, 0.0000000000000000000, 0.0000000000000000000, 0.0000000000000000000, 0.0000000000000000000, 0.0000000000000000000 ) ;
#35 = PRODUCT ( 'D063B', 'D063B', '', ( #107 ) ) ;
#36 =( CONVERSION_BASED_UNIT ( 'INCH', #61 ) LENGTH_UNIT ( ) NAMED_UNIT ( #34 ) );
#37 =( NAMED_UNIT ( * ) PLANE_ANGLE_UNIT ( ) SI_UNIT ( $, .RADIAN. ) );
#38 =( NAMED_UNIT ( * ) SI_UNIT ( $, .STERADIAN. ) SOLID_ANGLE_UNIT ( ) );
#39 = CARTESIAN_POINT ( 'NONE',  ( 0.0000000000000000000, 0.0000000000000000000, 0.0000000000000000000 ) ) ;
#40 = DIRECTION ( 'NONE',  ( 0.0000000000000000000, 0.0000000000000000000, 1.000000000000000000 ) ) ;
#41 = DIRECTION ( 'NONE',  ( 1.000000000000000000, 0.0000000000000000000, 0.0000000000000000000 ) ) ;
#42 = DIRECTION ( 'NONE',  ( -0.0000000000000000000, -1.000000000000000000, -0.0000000000000000000 ) ) ;
#43 = DIRECTION ( 'NONE',  ( 0.0000000000000000000, 1.000000000000000000, 0.0000000000000000000 ) ) ;
#44 = DIRECTION ( 'NONE',  ( 0.0000000000000000000, 0.0000000000000000000, 1.000000000000000000 ) ) ;
#45 = CARTESIAN_POINT ( 'NONE',  ( 0.0000000000000000000, 0.0000000000000000000, 0.0000000000000000000 ) ) ;
#46 = DIRECTION ( 'NONE',  ( 0.0000000000000000000, 1.000000000000000000, 0.0000000000000000000 ) ) ;
#47 = DIRECTION ( 'NONE',  ( 0.0000000000000000000, 0.0000000000000000000, 1.000000000000000000 ) ) ;
#48 = PLANE ( 'NONE',  #127 ) ;
#49 = LINE ( 'NONE', #50, #117 ) ;
#50 = CARTESIAN_POINT ( 'NONE',  ( 1.530808498934191500E-017, 0.06250000000000000000, 0.1250000000000000000 ) ) ;
#51 = DIRECTION ( 'NONE',  ( -0.0000000000000000000, -1.000000000000000000, -0.0000000000000000000 ) ) ;
#52 = CARTESIAN_POINT ( 'NONE',  ( 0.0000000000000000000, 0.06250000000000000000, 0.0000000000000000000 ) ) ;
#53 = DIRECTION ( 'NONE',  ( 0.0000000000000000000, 1.000000000000000000, 0.0000000000000000000 ) ) ;
#54 = DIRECTION ( 'NONE',  ( 0.0000000000000000000, -0.0000000000000000000, 1.000000000000000000 ) ) ;
#55 = PLANE ( 'NONE',  #128 ) ;
#56 = CARTESIAN_POINT ( 'NONE',  ( 0.0000000000000000000, 0.0000000000000000000, 0.0000000000000000000 ) ) ;
#57 = DIRECTION ( 'NONE',  ( 0.0000000000000000000, 1.000000000000000000, 0.0000000000000000000 ) ) ;
#58 = DIRECTION ( 'NONE',  ( 0.0000000000000000000, -0.0000000000000000000, 1.000000000000000000 ) ) ;
#59 = PRESENTATION_LAYER_ASSIGNMENT (  '', '', ( #64 ) ) ;
#60 = MECHANICAL_DESIGN_GEOMETRIC_PRESENTATION_REPRESENTATION (  '', ( #64 ), #105 ) ;
#61 = LENGTH_MEASURE_WITH_UNIT ( LENGTH_MEASURE( 0.02539999999999999900 ), #16 );
#62 = AXIS2_PLACEMENT_3D ( 'NONE', #39, #40, #41 ) ;
#63 = PRODUCT_DEFINITION_FORMATION_WITH_SPECIFIED_SOURCE ( 'ANY', '', #35, .NOT_KNOWN. ) ;
#64 = STYLED_ITEM ( 'NONE', ( #15 ), #4 ) ;
#65 = ADVANCED_FACE ( 'NONE', ( #118 ), #48, .T. ) ;
#66 = ADVANCED_FACE ( 'NONE', ( #125 ), #55, .F. ) ;
#67 = ADVANCED_FACE ( 'NONE', ( #124 ), #18, .T. ) ;
#68 = PRODUCT_DEFINITION ( 'UNKNOWN', '', #63, #6 ) ;
#69 = COLOUR_RGB ( '',0.5686274509803921400, 0.5686274509803921400, 0.5882352941176470800 ) ;
#70 = PRODUCT_RELATED_PRODUCT_CATEGORY ( 'part', '', ( #35 ) ) ;
#71 = EDGE_LOOP ( 'NONE', ( #85, #86 ) ) ;
#72 = EDGE_LOOP ( 'NONE', ( #87, #129 ) ) ;
#73 = VERTEX_POINT ( 'NONE', #142 ) ;
#74 = VERTEX_POINT ( 'NONE', #143 ) ;
#75 = VERTEX_POINT ( 'NONE', #144 ) ;
#76 = VERTEX_POINT ( 'NONE', #145 ) ;
#77 = ORIENTED_EDGE ( 'NONE', *, *, #22, .F. ) ;
#78 = ORIENTED_EDGE ( 'NONE', *, *, #23, .T. ) ;
#79 = ORIENTED_EDGE ( 'NONE', *, *, #27, .T. ) ;
#80 = ORIENTED_EDGE ( 'NONE', *, *, #24, .F. ) ;
#81 = ORIENTED_EDGE ( 'NONE', *, *, #27, .F. ) ;
#82 = ORIENTED_EDGE ( 'NONE', *, *, #24, .T. ) ;
#83 = ORIENTED_EDGE ( 'NONE', *, *, #25, .F. ) ;
#84 = ORIENTED_EDGE ( 'NONE', *, *, #26, .T. ) ;
#85 = ORIENTED_EDGE ( 'NONE', *, *, #25, .T. ) ;
#86 = ORIENTED_EDGE ( 'NONE', *, *, #22, .T. ) ;
#87 = ORIENTED_EDGE ( 'NONE', *, *, #26, .F. ) ;
#88 = APPLICATION_CONTEXT ( 'automotive_design' ) ;
#89 = APPLICATION_CONTEXT ( 'automotive_design' ) ;
#90 =( NAMED_UNIT ( * ) SI_UNIT ( $, .STERADIAN. ) SOLID_ANGLE_UNIT ( ) );
#91 = CARTESIAN_POINT ( 'NONE',  ( 0.0000000000000000000, 0.06250000000000000000, 0.0000000000000000000 ) ) ;
#92 = DIRECTION ( 'NONE',  ( -0.0000000000000000000, -1.000000000000000000, -0.0000000000000000000 ) ) ;
#93 = DIRECTION ( 'NONE',  ( 0.0000000000000000000, 0.0000000000000000000, -1.000000000000000000 ) ) ;
#94 = CARTESIAN_POINT ( 'NONE',  ( 0.0000000000000000000, 0.06250000000000000000, 0.0000000000000000000 ) ) ;
#95 = DIRECTION ( 'NONE',  ( 0.0000000000000000000, 1.000000000000000000, 0.0000000000000000000 ) ) ;
#96 = DIRECTION ( 'NONE',  ( 0.0000000000000000000, 0.0000000000000000000, 1.000000000000000000 ) ) ;
#97 = CARTESIAN_POINT ( 'NONE',  ( 0.0000000000000000000, 0.0000000000000000000, 0.0000000000000000000 ) ) ;
#98 = DIRECTION ( 'NONE',  ( 0.0000000000000000000, 1.000000000000000000, 0.0000000000000000000 ) ) ;
#99 = DIRECTION ( 'NONE',  ( 0.0000000000000000000, 0.0000000000000000000, 1.000000000000000000 ) ) ;
#100 = CARTESIAN_POINT ( 'NONE',  ( 0.0000000000000000000, 0.06250000000000000000, 0.0000000000000000000 ) ) ;
#101 = LINE ( 'NONE', #102, #119 ) ;
#102 = CARTESIAN_POINT ( 'NONE',  ( 0.0000000000000000000, 0.06250000000000000000, -0.1250000000000000000 ) ) ;
#103 =( GEOMETRIC_REPRESENTATION_CONTEXT ( 3 ) GLOBAL_UNCERTAINTY_ASSIGNED_CONTEXT ( ( #3 ) ) GLOBAL_UNIT_ASSIGNED_CONTEXT ( ( #137, #138, #90 ) ) REPRESENTATION_CONTEXT ( 'NONE', 'WORKASPACE' ) );
#104 =( GEOMETRIC_REPRESENTATION_CONTEXT ( 3 ) GLOBAL_UNCERTAINTY_ASSIGNED_CONTEXT ( ( #2 ) ) GLOBAL_UNIT_ASSIGNED_CONTEXT ( ( #147, #148, #8 ) ) REPRESENTATION_CONTEXT ( 'NONE', 'WORKASPACE' ) );
#105 =( GEOMETRIC_REPRESENTATION_CONTEXT ( 3 ) GLOBAL_UNCERTAINTY_ASSIGNED_CONTEXT ( ( #1 ) ) GLOBAL_UNIT_ASSIGNED_CONTEXT ( ( #36, #37, #38 ) ) REPRESENTATION_CONTEXT ( 'NONE', 'WORKASPACE' ) );
#106 = APPLICATION_PROTOCOL_DEFINITION ( 'draft international standard', 'automotive_design', 1998, #88 ) ;
#107 = PRODUCT_CONTEXT ( 'NONE', #88, 'mechanical' ) ;
#108 = APPLICATION_PROTOCOL_DEFINITION ( 'draft international standard', 'automotive_design', 1998, #89 ) ;
#109 = MECHANICAL_DESIGN_GEOMETRIC_PRESENTATION_REPRESENTATION (  '', ( #112 ), #103 ) ;
#110 = PRESENTATION_LAYER_ASSIGNMENT (  '', '', ( #112 ) ) ;
#111 = CLOSED_SHELL ( 'NONE', ( #21, #67, #65, #66 ) ) ;
#112 = STYLED_ITEM ( 'NONE', ( #135 ), #5 ) ;
#113 = LENGTH_MEASURE_WITH_UNIT ( LENGTH_MEASURE( 0.02539999999999999900 ), #136 );
#114 = AXIS2_PLACEMENT_3D ( 'NONE', #94, #95, #96 ) ;
#115 = FACE_OUTER_BOUND ( 'NONE', #20, .T. ) ;
#116 = AXIS2_PLACEMENT_3D ( 'NONE', #45, #46, #47 ) ;
#117 = VECTOR ( 'NONE', #51, 39.37007874015748100 ) ;
#118 = FACE_OUTER_BOUND ( 'NONE', #71, .T. ) ;
#119 = VECTOR ( 'NONE', #42, 39.37007874015748100 ) ;
#120 = AXIS2_PLACEMENT_3D ( 'NONE', #97, #98, #99 ) ;
#121 = LENGTH_MEASURE_WITH_UNIT ( LENGTH_MEASURE( 0.02539999999999999900 ), #146 );
#122 = AXIS2_PLACEMENT_3D ( 'NONE', #91, #92, #93 ) ;
#123 = AXIS2_PLACEMENT_3D ( 'NONE', #100, #43, #44 ) ;
#124 = FACE_OUTER_BOUND ( 'NONE', #19, .T. ) ;
#125 = FACE_OUTER_BOUND ( 'NONE', #72, .T. ) ;
#126 = CYLINDRICAL_SURFACE ( 'NONE', #122, 0.1250000000000000000 ) ;
#127 = AXIS2_PLACEMENT_3D ( 'NONE', #52, #53, #54 ) ;
#128 = AXIS2_PLACEMENT_3D ( 'NONE', #56, #57, #58 ) ;
#129 = ORIENTED_EDGE ( 'NONE', *, *, #23, .F. ) ;
#130 = FILL_AREA_STYLE_COLOUR ( '', #28 ) ;
#131 = FILL_AREA_STYLE ('',( #130 ) ) ;
#132 = SURFACE_STYLE_FILL_AREA ( #131 ) ;
#133 = SURFACE_SIDE_STYLE ('',( #132 ) ) ;
#134 = SURFACE_STYLE_USAGE ( .BOTH. , #133 ) ;
#135 = PRESENTATION_STYLE_ASSIGNMENT (( #134 ) ) ;
#136 =( LENGTH_UNIT ( ) NAMED_UNIT ( * ) SI_UNIT ( $, .METRE. ) );
#137 =( CONVERSION_BASED_UNIT ( 'INCH', #113 ) LENGTH_UNIT ( ) NAMED_UNIT ( #149 ) );
#138 =( NAMED_UNIT ( * ) PLANE_ANGLE_UNIT ( ) SI_UNIT ( $, .RADIAN. ) );
#139 = CARTESIAN_POINT ( 'NONE',  ( 0.0000000000000000000, 0.06250000000000000000, 0.0000000000000000000 ) ) ;
#140 = DIRECTION ( 'NONE',  ( -0.0000000000000000000, -1.000000000000000000, -0.0000000000000000000 ) ) ;
#141 = DIRECTION ( 'NONE',  ( 0.0000000000000000000, 0.0000000000000000000, -1.000000000000000000 ) ) ;
#142 = CARTESIAN_POINT ( 'NONE',  ( 1.530808498934191500E-017, 0.06250000000000000000, 0.1250000000000000000 ) ) ;
#143 = CARTESIAN_POINT ( 'NONE',  ( 0.0000000000000000000, 0.06250000000000000000, -0.1250000000000000000 ) ) ;
#144 = CARTESIAN_POINT ( 'NONE',  ( 1.530808498934191500E-017, 0.0000000000000000000, 0.1250000000000000000 ) ) ;
#145 = CARTESIAN_POINT ( 'NONE',  ( 0.0000000000000000000, 0.0000000000000000000, -0.1250000000000000000 ) ) ;
#146 =( LENGTH_UNIT ( ) NAMED_UNIT ( * ) SI_UNIT ( $, .METRE. ) );
#147 =( CONVERSION_BASED_UNIT ( 'INCH', #121 ) LENGTH_UNIT ( ) NAMED_UNIT ( #33 ) );
#148 =( NAMED_UNIT ( * ) PLANE_ANGLE_UNIT ( ) SI_UNIT ( $, .RADIAN. ) );
#149 = DIMENSIONAL_EXPONENTS ( 1.000000000000000000, 0.0000000000000000000, 0.0000000000000000000, 0.0000000000000000000, 0.0000000000000000000, 0.0000000000000000000, 0.0000000000000000000 ) ;
ENDSEC;
END-ISO-10303-21;
