ISO-10303-21;
HEADER;
FILE_DESCRIPTION (( 'STEP AP214' ),
    '1' );
FILE_NAME ('D063C.step',
    '2012-04-20T20:51:46',
    ( '' ),
    ( '' ),
    'SwSTEP 2.0',
    'SolidWorks 2012',
    '' );
FILE_SCHEMA (( 'AUTOMOTIVE_DESIGN' ));
ENDSEC;

DATA;
#1 = FILL_AREA_STYLE ('',( #96 ) ) ;
#2 = SURFACE_STYLE_FILL_AREA ( #1 ) ;
#3 = SURFACE_SIDE_STYLE ('',( #2 ) ) ;
#4 = SURFACE_STYLE_USAGE ( .BOTH. , #3 ) ;
#5 = PRESENTATION_STYLE_ASSIGNMENT (( #4 ) ) ;
#6 =( LENGTH_UNIT ( ) NAMED_UNIT ( * ) SI_UNIT ( $, .METRE. ) );
#7 =( CONVERSION_BASED_UNIT ( 'INCH', #112 ) LENGTH_UNIT ( ) NAMED_UNIT ( #128 ) );
#8 =( NAMED_UNIT ( * ) PLANE_ANGLE_UNIT ( ) SI_UNIT ( $, .RADIAN. ) );
#9 =( NAMED_UNIT ( * ) SI_UNIT ( $, .STERADIAN. ) SOLID_ANGLE_UNIT ( ) );
#10 = DIRECTION ( 'NONE',  ( 0.0000000000000000000, 0.0000000000000000000, 1.000000000000000000 ) ) ;
#11 = CARTESIAN_POINT ( 'NONE',  ( 0.0000000000000000000, 0.0000000000000000000, 0.0000000000000000000 ) ) ;
#12 = DIRECTION ( 'NONE',  ( 0.0000000000000000000, 1.000000000000000000, 0.0000000000000000000 ) ) ;
#13 = DIRECTION ( 'NONE',  ( 0.0000000000000000000, 0.0000000000000000000, 1.000000000000000000 ) ) ;
#14 = CARTESIAN_POINT ( 'NONE',  ( 0.0000000000000000000, 0.06250000000000000000, 0.0000000000000000000 ) ) ;
#15 = LINE ( 'NONE', #16, #142 ) ;
#16 = CARTESIAN_POINT ( 'NONE',  ( 2.296212748401287700E-017, 0.06250000000000000000, 0.1875000000000000300 ) ) ;
#17 = DIRECTION ( 'NONE',  ( -0.0000000000000000000, -1.000000000000000000, -0.0000000000000000000 ) ) ;
#18 = DIRECTION ( 'NONE',  ( 0.0000000000000000000, 1.000000000000000000, 0.0000000000000000000 ) ) ;
#19 = DIRECTION ( 'NONE',  ( 0.0000000000000000000, 0.0000000000000000000, 1.000000000000000000 ) ) ;
#20 = FILL_AREA_STYLE_COLOUR ( '', #78 ) ;
#21 = FILL_AREA_STYLE ('',( #20 ) ) ;
#22 = SURFACE_STYLE_FILL_AREA ( #21 ) ;
#23 = SURFACE_SIDE_STYLE ('',( #22 ) ) ;
#24 = SURFACE_STYLE_USAGE ( .BOTH. , #23 ) ;
#25 = PRESENTATION_STYLE_ASSIGNMENT (( #24 ) ) ;
#26 = VERTEX_POINT ( 'NONE', #48 ) ;
#27 = VERTEX_POINT ( 'NONE', #49 ) ;
#28 = VERTEX_POINT ( 'NONE', #50 ) ;
#29 = VERTEX_POINT ( 'NONE', #51 ) ;
#30 = EDGE_LOOP ( 'NONE', ( #37, #41, #40, #42 ) ) ;
#31 = EDGE_LOOP ( 'NONE', ( #47, #35, #34, #36 ) ) ;
#32 = EDGE_LOOP ( 'NONE', ( #43, #44 ) ) ;
#33 = EDGE_LOOP ( 'NONE', ( #45, #46 ) ) ;
#34 = ORIENTED_EDGE ( 'NONE', *, *, #82, .T. ) ;
#35 = ORIENTED_EDGE ( 'NONE', *, *, #86, .T. ) ;
#36 = ORIENTED_EDGE ( 'NONE', *, *, #83, .F. ) ;
#37 = ORIENTED_EDGE ( 'NONE', *, *, #86, .F. ) ;
#38 = APPLICATION_CONTEXT ( 'automotive_design' ) ;
#39 = APPLICATION_CONTEXT ( 'automotive_design' ) ;
#40 = ORIENTED_EDGE ( 'NONE', *, *, #83, .T. ) ;
#41 = ORIENTED_EDGE ( 'NONE', *, *, #84, .F. ) ;
#42 = ORIENTED_EDGE ( 'NONE', *, *, #85, .T. ) ;
#43 = ORIENTED_EDGE ( 'NONE', *, *, #84, .T. ) ;
#44 = ORIENTED_EDGE ( 'NONE', *, *, #87, .T. ) ;
#45 = ORIENTED_EDGE ( 'NONE', *, *, #85, .F. ) ;
#46 = ORIENTED_EDGE ( 'NONE', *, *, #82, .F. ) ;
#47 = ORIENTED_EDGE ( 'NONE', *, *, #87, .F. ) ;
#48 = CARTESIAN_POINT ( 'NONE',  ( 2.296212748401287700E-017, 0.06250000000000000000, 0.1875000000000000300 ) ) ;
#49 = CARTESIAN_POINT ( 'NONE',  ( 0.0000000000000000000, 0.06250000000000000000, -0.1875000000000000300 ) ) ;
#50 = CARTESIAN_POINT ( 'NONE',  ( 2.296212748401287700E-017, 0.0000000000000000000, 0.1875000000000000300 ) ) ;
#51 = CARTESIAN_POINT ( 'NONE',  ( 0.0000000000000000000, 0.0000000000000000000, -0.1875000000000000300 ) ) ;
#52 = PLANE ( 'NONE',  #143 ) ;
#53 = CARTESIAN_POINT ( 'NONE',  ( 0.0000000000000000000, 0.0000000000000000000, 0.0000000000000000000 ) ) ;
#54 = DIRECTION ( 'NONE',  ( 0.0000000000000000000, 1.000000000000000000, 0.0000000000000000000 ) ) ;
#55 = DIRECTION ( 'NONE',  ( 0.0000000000000000000, -0.0000000000000000000, 1.000000000000000000 ) ) ;
#56 = PLANE ( 'NONE',  #130 ) ;
#57 = CARTESIAN_POINT ( 'NONE',  ( 0.0000000000000000000, 0.06250000000000000000, 0.0000000000000000000 ) ) ;
#58 = DIRECTION ( 'NONE',  ( 0.0000000000000000000, 1.000000000000000000, 0.0000000000000000000 ) ) ;
#59 = DIRECTION ( 'NONE',  ( 0.0000000000000000000, -0.0000000000000000000, 1.000000000000000000 ) ) ;
#60 = CARTESIAN_POINT ( 'NONE',  ( 0.0000000000000000000, 0.06250000000000000000, 0.0000000000000000000 ) ) ;
#61 = DIRECTION ( 'NONE',  ( -0.0000000000000000000, -1.000000000000000000, -0.0000000000000000000 ) ) ;
#62 = DIRECTION ( 'NONE',  ( 0.0000000000000000000, 0.0000000000000000000, -1.000000000000000000 ) ) ;
#63 = CARTESIAN_POINT ( 'NONE',  ( 0.0000000000000000000, 0.06250000000000000000, 0.0000000000000000000 ) ) ;
#64 = DIRECTION ( 'NONE',  ( -0.0000000000000000000, -1.000000000000000000, -0.0000000000000000000 ) ) ;
#65 = DIRECTION ( 'NONE',  ( 0.0000000000000000000, 0.0000000000000000000, -1.000000000000000000 ) ) ;
#66 = CARTESIAN_POINT ( 'NONE',  ( 0.0000000000000000000, 0.0000000000000000000, 0.0000000000000000000 ) ) ;
#67 = DIRECTION ( 'NONE',  ( 0.0000000000000000000, 1.000000000000000000, 0.0000000000000000000 ) ) ;
#68 = DIRECTION ( 'NONE',  ( 0.0000000000000000000, 0.0000000000000000000, 1.000000000000000000 ) ) ;
#69 = CARTESIAN_POINT ( 'NONE',  ( 0.0000000000000000000, 0.06250000000000000000, 0.0000000000000000000 ) ) ;
#70 = LINE ( 'NONE', #71, #140 ) ;
#71 = CARTESIAN_POINT ( 'NONE',  ( 0.0000000000000000000, 0.06250000000000000000, -0.1875000000000000300 ) ) ;
#72 = DIRECTION ( 'NONE',  ( -0.0000000000000000000, -1.000000000000000000, -0.0000000000000000000 ) ) ;
#73 = DIRECTION ( 'NONE',  ( 0.0000000000000000000, 1.000000000000000000, 0.0000000000000000000 ) ) ;
#74 = COLOUR_RGB ( '',0.5686274509803921400, 0.5686274509803921400, 0.5882352941176470800 ) ;
#75 = PRODUCT_DEFINITION ( 'UNKNOWN', '', #108, #115 ) ;
#76 = PRODUCT_RELATED_PRODUCT_CATEGORY ( 'part', '', ( #129 ) ) ;
#77 = ADVANCED_FACE ( 'NONE', ( #147 ), #52, .F. ) ;
#78 = COLOUR_RGB ( '',0.5686274509803921400, 0.5686274509803921400, 0.5882352941176470800 ) ;
#79 = ADVANCED_FACE ( 'NONE', ( #146 ), #56, .T. ) ;
#80 = ADVANCED_FACE ( 'NONE', ( #132 ), #148, .T. ) ;
#81 = ADVANCED_FACE ( 'NONE', ( #133 ), #135, .T. ) ;
#82 = EDGE_CURVE ( 'NONE', #28, #29, #91, .T. ) ;
#83 = EDGE_CURVE ( 'NONE', #27, #29, #70, .T. ) ;
#84 = EDGE_CURVE ( 'NONE', #27, #26, #88, .T. ) ;
#85 = EDGE_CURVE ( 'NONE', #29, #28, #90, .T. ) ;
#86 = EDGE_CURVE ( 'NONE', #26, #28, #15, .T. ) ;
#87 = EDGE_CURVE ( 'NONE', #26, #27, #89, .T. ) ;
#88 = CIRCLE ( 'NONE', #139, 0.1875000000000000300 ) ;
#89 = CIRCLE ( 'NONE', #138, 0.1875000000000000300 ) ;
#90 = CIRCLE ( 'NONE', #141, 0.1875000000000000300 ) ;
#91 = CIRCLE ( 'NONE', #131, 0.1875000000000000300 ) ;
#92 =( LENGTH_UNIT ( ) NAMED_UNIT ( * ) SI_UNIT ( $, .METRE. ) );
#93 =( CONVERSION_BASED_UNIT ( 'INCH', #109 ) LENGTH_UNIT ( ) NAMED_UNIT ( #126 ) );
#94 =( NAMED_UNIT ( * ) PLANE_ANGLE_UNIT ( ) SI_UNIT ( $, .RADIAN. ) );
#95 =( NAMED_UNIT ( * ) SI_UNIT ( $, .STERADIAN. ) SOLID_ANGLE_UNIT ( ) );
#96 = FILL_AREA_STYLE_COLOUR ( '', #74 ) ;
#97 = CARTESIAN_POINT ( 'NONE',  ( 0.0000000000000000000, 0.0000000000000000000, 0.0000000000000000000 ) ) ;
#98 = DIRECTION ( 'NONE',  ( 0.0000000000000000000, 0.0000000000000000000, 1.000000000000000000 ) ) ;
#99 = DIRECTION ( 'NONE',  ( 1.000000000000000000, 0.0000000000000000000, 0.0000000000000000000 ) ) ;
#100 = SHAPE_DEFINITION_REPRESENTATION ( #116, #104 ) ;
#101 = APPLICATION_PROTOCOL_DEFINITION ( 'draft international standard', 'automotive_design', 1998, #38 ) ;
#102 = PRODUCT_CONTEXT ( 'NONE', #38, 'mechanical' ) ;
#103 = APPLICATION_PROTOCOL_DEFINITION ( 'draft international standard', 'automotive_design', 1998, #39 ) ;
#104 = ADVANCED_BREP_SHAPE_REPRESENTATION ( 'D063C', ( #114, #113 ), #118 ) ;
#105 = UNCERTAINTY_MEASURE_WITH_UNIT (LENGTH_MEASURE( 1.000000000000000100E-005 ), #7, 'distance_accuracy_value', 'NONE');
#106 = UNCERTAINTY_MEASURE_WITH_UNIT (LENGTH_MEASURE( 1.000000000000000100E-005 ), #121, 'distance_accuracy_value', 'NONE');
#107 = UNCERTAINTY_MEASURE_WITH_UNIT (LENGTH_MEASURE( 1.000000000000000100E-005 ), #93, 'distance_accuracy_value', 'NONE');
#108 = PRODUCT_DEFINITION_FORMATION_WITH_SPECIFIED_SOURCE ( 'ANY', '', #129, .NOT_KNOWN. ) ;
#109 = LENGTH_MEASURE_WITH_UNIT ( LENGTH_MEASURE( 0.02539999999999999900 ), #92 );
#110 = PRESENTATION_LAYER_ASSIGNMENT (  '', '', ( #137 ) ) ;
#111 = MECHANICAL_DESIGN_GEOMETRIC_PRESENTATION_REPRESENTATION (  '', ( #137 ), #119 ) ;
#112 = LENGTH_MEASURE_WITH_UNIT ( LENGTH_MEASURE( 0.02539999999999999900 ), #6 );
#113 = AXIS2_PLACEMENT_3D ( 'NONE', #97, #98, #99 ) ;
#114 = MANIFOLD_SOLID_BREP ( 'Boss-Extrude1', #145 ) ;
#115 = PRODUCT_DEFINITION_CONTEXT ( 'detailed design', #39, 'design' ) ;
#116 = PRODUCT_DEFINITION_SHAPE ( 'NONE', 'NONE',  #75 ) ;
#117 =( GEOMETRIC_REPRESENTATION_CONTEXT ( 3 ) GLOBAL_UNCERTAINTY_ASSIGNED_CONTEXT ( ( #106 ) ) GLOBAL_UNIT_ASSIGNED_CONTEXT ( ( #121, #122, #123 ) ) REPRESENTATION_CONTEXT ( 'NONE', 'WORKASPACE' ) );
#118 =( GEOMETRIC_REPRESENTATION_CONTEXT ( 3 ) GLOBAL_UNCERTAINTY_ASSIGNED_CONTEXT ( ( #107 ) ) GLOBAL_UNIT_ASSIGNED_CONTEXT ( ( #93, #94, #95 ) ) REPRESENTATION_CONTEXT ( 'NONE', 'WORKASPACE' ) );
#119 =( GEOMETRIC_REPRESENTATION_CONTEXT ( 3 ) GLOBAL_UNCERTAINTY_ASSIGNED_CONTEXT ( ( #105 ) ) GLOBAL_UNIT_ASSIGNED_CONTEXT ( ( #7, #8, #9 ) ) REPRESENTATION_CONTEXT ( 'NONE', 'WORKASPACE' ) );
#120 =( LENGTH_UNIT ( ) NAMED_UNIT ( * ) SI_UNIT ( $, .METRE. ) );
#121 =( CONVERSION_BASED_UNIT ( 'INCH', #149 ) LENGTH_UNIT ( ) NAMED_UNIT ( #127 ) );
#122 =( NAMED_UNIT ( * ) PLANE_ANGLE_UNIT ( ) SI_UNIT ( $, .RADIAN. ) );
#123 =( NAMED_UNIT ( * ) SI_UNIT ( $, .STERADIAN. ) SOLID_ANGLE_UNIT ( ) );
#124 = MECHANICAL_DESIGN_GEOMETRIC_PRESENTATION_REPRESENTATION (  '', ( #136 ), #117 ) ;
#125 = PRESENTATION_LAYER_ASSIGNMENT (  '', '', ( #136 ) ) ;
#126 = DIMENSIONAL_EXPONENTS ( 1.000000000000000000, 0.0000000000000000000, 0.0000000000000000000, 0.0000000000000000000, 0.0000000000000000000, 0.0000000000000000000, 0.0000000000000000000 ) ;
#127 = DIMENSIONAL_EXPONENTS ( 1.000000000000000000, 0.0000000000000000000, 0.0000000000000000000, 0.0000000000000000000, 0.0000000000000000000, 0.0000000000000000000, 0.0000000000000000000 ) ;
#128 = DIMENSIONAL_EXPONENTS ( 1.000000000000000000, 0.0000000000000000000, 0.0000000000000000000, 0.0000000000000000000, 0.0000000000000000000, 0.0000000000000000000, 0.0000000000000000000 ) ;
#129 = PRODUCT ( 'D063C', 'D063C', '', ( #102 ) ) ;
#130 = AXIS2_PLACEMENT_3D ( 'NONE', #57, #58, #59 ) ;
#131 = AXIS2_PLACEMENT_3D ( 'NONE', #66, #67, #68 ) ;
#132 = FACE_OUTER_BOUND ( 'NONE', #30, .T. ) ;
#133 = FACE_OUTER_BOUND ( 'NONE', #31, .T. ) ;
#134 = AXIS2_PLACEMENT_3D ( 'NONE', #63, #64, #65 ) ;
#135 = CYLINDRICAL_SURFACE ( 'NONE', #134, 0.1875000000000000300 ) ;
#136 = STYLED_ITEM ( 'NONE', ( #25 ), #114 ) ;
#137 = STYLED_ITEM ( 'NONE', ( #5 ), #104 ) ;
#138 = AXIS2_PLACEMENT_3D ( 'NONE', #14, #18, #19 ) ;
#139 = AXIS2_PLACEMENT_3D ( 'NONE', #69, #73, #10 ) ;
#140 = VECTOR ( 'NONE', #72, 39.37007874015748100 ) ;
#141 = AXIS2_PLACEMENT_3D ( 'NONE', #11, #12, #13 ) ;
#142 = VECTOR ( 'NONE', #17, 39.37007874015748100 ) ;
#143 = AXIS2_PLACEMENT_3D ( 'NONE', #53, #54, #55 ) ;
#144 = AXIS2_PLACEMENT_3D ( 'NONE', #60, #61, #62 ) ;
#145 = CLOSED_SHELL ( 'NONE', ( #81, #80, #79, #77 ) ) ;
#146 = FACE_OUTER_BOUND ( 'NONE', #32, .T. ) ;
#147 = FACE_OUTER_BOUND ( 'NONE', #33, .T. ) ;
#148 = CYLINDRICAL_SURFACE ( 'NONE', #144, 0.1875000000000000300 ) ;
#149 = LENGTH_MEASURE_WITH_UNIT ( LENGTH_MEASURE( 0.02539999999999999900 ), #120 );
ENDSEC;
END-ISO-10303-21;
