ISO-10303-21;
HEADER;
FILE_DESCRIPTION (( 'STEP AP214' ),
    '1' );
FILE_NAME ('D063D.step',
    '2012-04-20T20:51:57',
    ( '' ),
    ( '' ),
    'SwSTEP 2.0',
    'SolidWorks 2012',
    '' );
FILE_SCHEMA (( 'AUTOMOTIVE_DESIGN' ));
ENDSEC;

DATA;
#1 = EDGE_LOOP ( 'NONE', ( #12, #14, #13, #15 ) ) ;
#2 = EDGE_LOOP ( 'NONE', ( #121, #10, #9, #11 ) ) ;
#3 = EDGE_LOOP ( 'NONE', ( #16, #17 ) ) ;
#4 = EDGE_LOOP ( 'NONE', ( #119, #120 ) ) ;
#5 = VERTEX_POINT ( 'NONE', #122 ) ;
#6 = VERTEX_POINT ( 'NONE', #123 ) ;
#7 = VERTEX_POINT ( 'NONE', #124 ) ;
#8 = VERTEX_POINT ( 'NONE', #125 ) ;
#9 = ORIENTED_EDGE ( 'NONE', *, *, #96, .T. ) ;
#10 = ORIENTED_EDGE ( 'NONE', *, *, #111, .T. ) ;
#11 = ORIENTED_EDGE ( 'NONE', *, *, #97, .F. ) ;
#12 = ORIENTED_EDGE ( 'NONE', *, *, #111, .F. ) ;
#13 = ORIENTED_EDGE ( 'NONE', *, *, #97, .T. ) ;
#14 = ORIENTED_EDGE ( 'NONE', *, *, #98, .F. ) ;
#15 = ORIENTED_EDGE ( 'NONE', *, *, #99, .T. ) ;
#16 = ORIENTED_EDGE ( 'NONE', *, *, #98, .T. ) ;
#17 = ORIENTED_EDGE ( 'NONE', *, *, #110, .T. ) ;
#18 = CARTESIAN_POINT ( 'NONE',  ( 0.0000000000000000000, 0.06250000000000000000, -0.2500000000000000000 ) ) ;
#19 = DIRECTION ( 'NONE',  ( -0.0000000000000000000, -1.000000000000000000, -0.0000000000000000000 ) ) ;
#20 = DIRECTION ( 'NONE',  ( 0.0000000000000000000, 1.000000000000000000, 0.0000000000000000000 ) ) ;
#21 = DIRECTION ( 'NONE',  ( 0.0000000000000000000, 0.0000000000000000000, 1.000000000000000000 ) ) ;
#22 = CARTESIAN_POINT ( 'NONE',  ( 0.0000000000000000000, 0.0000000000000000000, 0.0000000000000000000 ) ) ;
#23 = DIRECTION ( 'NONE',  ( 0.0000000000000000000, 1.000000000000000000, 0.0000000000000000000 ) ) ;
#24 = DIRECTION ( 'NONE',  ( 0.0000000000000000000, 0.0000000000000000000, 1.000000000000000000 ) ) ;
#25 = PLANE ( 'NONE',  #145 ) ;
#26 = CARTESIAN_POINT ( 'NONE',  ( 0.0000000000000000000, 0.0000000000000000000, 0.0000000000000000000 ) ) ;
#27 = DIRECTION ( 'NONE',  ( 0.0000000000000000000, 1.000000000000000000, 0.0000000000000000000 ) ) ;
#28 = DIRECTION ( 'NONE',  ( 0.0000000000000000000, -0.0000000000000000000, 1.000000000000000000 ) ) ;
#29 = PLANE ( 'NONE',  #62 ) ;
#30 = CARTESIAN_POINT ( 'NONE',  ( 0.0000000000000000000, 0.06250000000000000000, 0.0000000000000000000 ) ) ;
#31 = DIRECTION ( 'NONE',  ( 0.0000000000000000000, 1.000000000000000000, 0.0000000000000000000 ) ) ;
#32 = DIRECTION ( 'NONE',  ( 0.0000000000000000000, -0.0000000000000000000, 1.000000000000000000 ) ) ;
#33 = CARTESIAN_POINT ( 'NONE',  ( 0.0000000000000000000, 0.06250000000000000000, 0.0000000000000000000 ) ) ;
#34 = DIRECTION ( 'NONE',  ( -0.0000000000000000000, -1.000000000000000000, -0.0000000000000000000 ) ) ;
#35 = DIRECTION ( 'NONE',  ( 0.0000000000000000000, 0.0000000000000000000, -1.000000000000000000 ) ) ;
#36 = CARTESIAN_POINT ( 'NONE',  ( 0.0000000000000000000, 0.06250000000000000000, 0.0000000000000000000 ) ) ;
#37 = DIRECTION ( 'NONE',  ( 0.0000000000000000000, 1.000000000000000000, 0.0000000000000000000 ) ) ;
#38 = DIRECTION ( 'NONE',  ( 0.0000000000000000000, 0.0000000000000000000, 1.000000000000000000 ) ) ;
#39 = LINE ( 'NONE', #40, #47 ) ;
#40 = CARTESIAN_POINT ( 'NONE',  ( 3.061616997868383000E-017, 0.06250000000000000000, 0.2500000000000000000 ) ) ;
#41 = DIRECTION ( 'NONE',  ( -0.0000000000000000000, -1.000000000000000000, -0.0000000000000000000 ) ) ;
#42 =( LENGTH_UNIT ( ) NAMED_UNIT ( * ) SI_UNIT ( $, .METRE. ) );
#43 =( CONVERSION_BASED_UNIT ( 'INCH', #46 ) LENGTH_UNIT ( ) NAMED_UNIT ( #147 ) );
#44 =( NAMED_UNIT ( * ) PLANE_ANGLE_UNIT ( ) SI_UNIT ( $, .RADIAN. ) );
#45 =( NAMED_UNIT ( * ) SI_UNIT ( $, .STERADIAN. ) SOLID_ANGLE_UNIT ( ) );
#46 = LENGTH_MEASURE_WITH_UNIT ( LENGTH_MEASURE( 0.02539999999999999900 ), #42 );
#47 = VECTOR ( 'NONE', #41, 39.37007874015748100 ) ;
#48 = STYLED_ITEM ( 'NONE', ( #74 ), #88 ) ;
#49 = PRESENTATION_LAYER_ASSIGNMENT (  '', '', ( #48 ) ) ;
#50 = MECHANICAL_DESIGN_GEOMETRIC_PRESENTATION_REPRESENTATION (  '', ( #48 ), #87 ) ;
#51 = LENGTH_MEASURE_WITH_UNIT ( LENGTH_MEASURE( 0.02539999999999999900 ), #75 );
#52 = AXIS2_PLACEMENT_3D ( 'NONE', #79, #80, #81 ) ;
#53 = PRODUCT_DEFINITION_FORMATION_WITH_SPECIFIED_SOURCE ( 'ANY', '', #149, .NOT_KNOWN. ) ;
#54 = APPLICATION_CONTEXT ( 'automotive_design' ) ;
#55 = APPLICATION_CONTEXT ( 'automotive_design' ) ;
#56 = MANIFOLD_SOLID_BREP ( 'Boss-Extrude1', #106 ) ;
#57 = PRODUCT_DEFINITION_CONTEXT ( 'detailed design', #55, 'design' ) ;
#58 = PRODUCT_DEFINITION_SHAPE ( 'NONE', 'NONE',  #118 ) ;
#59 = ADVANCED_FACE ( 'NONE', ( #60 ), #61, .T. ) ;
#60 = FACE_OUTER_BOUND ( 'NONE', #1, .T. ) ;
#61 = CYLINDRICAL_SURFACE ( 'NONE', #65, 0.2500000000000000000 ) ;
#62 = AXIS2_PLACEMENT_3D ( 'NONE', #30, #31, #32 ) ;
#63 = FACE_OUTER_BOUND ( 'NONE', #4, .T. ) ;
#64 = AXIS2_PLACEMENT_3D ( 'NONE', #139, #140, #141 ) ;
#65 = AXIS2_PLACEMENT_3D ( 'NONE', #136, #137, #138 ) ;
#66 = AXIS2_PLACEMENT_3D ( 'NONE', #36, #37, #38 ) ;
#67 = AXIS2_PLACEMENT_3D ( 'NONE', #142, #20, #21 ) ;
#68 = APPLICATION_PROTOCOL_DEFINITION ( 'draft international standard', 'automotive_design', 1998, #54 ) ;
#69 = FILL_AREA_STYLE_COLOUR ( '', #117 ) ;
#70 = FILL_AREA_STYLE ('',( #69 ) ) ;
#71 = SURFACE_STYLE_FILL_AREA ( #70 ) ;
#72 = SURFACE_SIDE_STYLE ('',( #71 ) ) ;
#73 = SURFACE_STYLE_USAGE ( .BOTH. , #72 ) ;
#74 = PRESENTATION_STYLE_ASSIGNMENT (( #73 ) ) ;
#75 =( LENGTH_UNIT ( ) NAMED_UNIT ( * ) SI_UNIT ( $, .METRE. ) );
#76 =( CONVERSION_BASED_UNIT ( 'INCH', #51 ) LENGTH_UNIT ( ) NAMED_UNIT ( #148 ) );
#77 =( NAMED_UNIT ( * ) PLANE_ANGLE_UNIT ( ) SI_UNIT ( $, .RADIAN. ) );
#78 =( NAMED_UNIT ( * ) SI_UNIT ( $, .STERADIAN. ) SOLID_ANGLE_UNIT ( ) );
#79 = CARTESIAN_POINT ( 'NONE',  ( 0.0000000000000000000, 0.0000000000000000000, 0.0000000000000000000 ) ) ;
#80 = DIRECTION ( 'NONE',  ( 0.0000000000000000000, 0.0000000000000000000, 1.000000000000000000 ) ) ;
#81 = DIRECTION ( 'NONE',  ( 1.000000000000000000, 0.0000000000000000000, 0.0000000000000000000 ) ) ;
#82 = SHAPE_DEFINITION_REPRESENTATION ( #58, #88 ) ;
#83 = PRODUCT_CONTEXT ( 'NONE', #54, 'mechanical' ) ;
#84 = APPLICATION_PROTOCOL_DEFINITION ( 'draft international standard', 'automotive_design', 1998, #55 ) ;
#85 =( GEOMETRIC_REPRESENTATION_CONTEXT ( 3 ) GLOBAL_UNCERTAINTY_ASSIGNED_CONTEXT ( ( #90 ) ) GLOBAL_UNIT_ASSIGNED_CONTEXT ( ( #133, #134, #135 ) ) REPRESENTATION_CONTEXT ( 'NONE', 'WORKASPACE' ) );
#86 =( GEOMETRIC_REPRESENTATION_CONTEXT ( 3 ) GLOBAL_UNCERTAINTY_ASSIGNED_CONTEXT ( ( #91 ) ) GLOBAL_UNIT_ASSIGNED_CONTEXT ( ( #43, #44, #45 ) ) REPRESENTATION_CONTEXT ( 'NONE', 'WORKASPACE' ) );
#87 =( GEOMETRIC_REPRESENTATION_CONTEXT ( 3 ) GLOBAL_UNCERTAINTY_ASSIGNED_CONTEXT ( ( #89 ) ) GLOBAL_UNIT_ASSIGNED_CONTEXT ( ( #76, #77, #78 ) ) REPRESENTATION_CONTEXT ( 'NONE', 'WORKASPACE' ) );
#88 = ADVANCED_BREP_SHAPE_REPRESENTATION ( 'D063D', ( #56, #52 ), #86 ) ;
#89 = UNCERTAINTY_MEASURE_WITH_UNIT (LENGTH_MEASURE( 1.000000000000000100E-005 ), #76, 'distance_accuracy_value', 'NONE');
#90 = UNCERTAINTY_MEASURE_WITH_UNIT (LENGTH_MEASURE( 1.000000000000000100E-005 ), #133, 'distance_accuracy_value', 'NONE');
#91 = UNCERTAINTY_MEASURE_WITH_UNIT (LENGTH_MEASURE( 1.000000000000000100E-005 ), #43, 'distance_accuracy_value', 'NONE');
#92 = FACE_OUTER_BOUND ( 'NONE', #2, .T. ) ;
#93 = FACE_OUTER_BOUND ( 'NONE', #3, .T. ) ;
#94 = DIMENSIONAL_EXPONENTS ( 1.000000000000000000, 0.0000000000000000000, 0.0000000000000000000, 0.0000000000000000000, 0.0000000000000000000, 0.0000000000000000000, 0.0000000000000000000 ) ;
#95 = PRODUCT_RELATED_PRODUCT_CATEGORY ( 'part', '', ( #149 ) ) ;
#96 = EDGE_CURVE ( 'NONE', #6, #7, #113, .T. ) ;
#97 = EDGE_CURVE ( 'NONE', #8, #7, #143, .T. ) ;
#98 = EDGE_CURVE ( 'NONE', #8, #5, #114, .T. ) ;
#99 = EDGE_CURVE ( 'NONE', #7, #6, #112, .T. ) ;
#100 = ADVANCED_FACE ( 'NONE', ( #63 ), #25, .F. ) ;
#101 = ADVANCED_FACE ( 'NONE', ( #93 ), #29, .T. ) ;
#102 = CYLINDRICAL_SURFACE ( 'NONE', #103, 0.2500000000000000000 ) ;
#103 = AXIS2_PLACEMENT_3D ( 'NONE', #33, #34, #35 ) ;
#104 = MECHANICAL_DESIGN_GEOMETRIC_PRESENTATION_REPRESENTATION (  '', ( #107 ), #85 ) ;
#105 = PRESENTATION_LAYER_ASSIGNMENT (  '', '', ( #107 ) ) ;
#106 = CLOSED_SHELL ( 'NONE', ( #109, #59, #101, #100 ) ) ;
#107 = STYLED_ITEM ( 'NONE', ( #131 ), #56 ) ;
#108 = LENGTH_MEASURE_WITH_UNIT ( LENGTH_MEASURE( 0.02539999999999999900 ), #132 );
#109 = ADVANCED_FACE ( 'NONE', ( #92 ), #102, .T. ) ;
#110 = EDGE_CURVE ( 'NONE', #5, #8, #116, .T. ) ;
#111 = EDGE_CURVE ( 'NONE', #5, #6, #39, .T. ) ;
#112 = CIRCLE ( 'NONE', #144, 0.2500000000000000000 ) ;
#113 = CIRCLE ( 'NONE', #64, 0.2500000000000000000 ) ;
#114 = CIRCLE ( 'NONE', #67, 0.2500000000000000000 ) ;
#115 = COLOUR_RGB ( '',0.5686274509803921400, 0.5686274509803921400, 0.5882352941176470800 ) ;
#116 = CIRCLE ( 'NONE', #66, 0.2500000000000000000 ) ;
#117 = COLOUR_RGB ( '',0.5686274509803921400, 0.5686274509803921400, 0.5882352941176470800 ) ;
#118 = PRODUCT_DEFINITION ( 'UNKNOWN', '', #53, #57 ) ;
#119 = ORIENTED_EDGE ( 'NONE', *, *, #99, .F. ) ;
#120 = ORIENTED_EDGE ( 'NONE', *, *, #96, .F. ) ;
#121 = ORIENTED_EDGE ( 'NONE', *, *, #110, .F. ) ;
#122 = CARTESIAN_POINT ( 'NONE',  ( 3.061616997868383000E-017, 0.06250000000000000000, 0.2500000000000000000 ) ) ;
#123 = CARTESIAN_POINT ( 'NONE',  ( 3.061616997868383000E-017, 0.0000000000000000000, 0.2500000000000000000 ) ) ;
#124 = CARTESIAN_POINT ( 'NONE',  ( 0.0000000000000000000, 0.0000000000000000000, -0.2500000000000000000 ) ) ;
#125 = CARTESIAN_POINT ( 'NONE',  ( 0.0000000000000000000, 0.06250000000000000000, -0.2500000000000000000 ) ) ;
#126 = FILL_AREA_STYLE_COLOUR ( '', #115 ) ;
#127 = FILL_AREA_STYLE ('',( #126 ) ) ;
#128 = SURFACE_STYLE_FILL_AREA ( #127 ) ;
#129 = SURFACE_SIDE_STYLE ('',( #128 ) ) ;
#130 = SURFACE_STYLE_USAGE ( .BOTH. , #129 ) ;
#131 = PRESENTATION_STYLE_ASSIGNMENT (( #130 ) ) ;
#132 =( LENGTH_UNIT ( ) NAMED_UNIT ( * ) SI_UNIT ( $, .METRE. ) );
#133 =( CONVERSION_BASED_UNIT ( 'INCH', #108 ) LENGTH_UNIT ( ) NAMED_UNIT ( #94 ) );
#134 =( NAMED_UNIT ( * ) PLANE_ANGLE_UNIT ( ) SI_UNIT ( $, .RADIAN. ) );
#135 =( NAMED_UNIT ( * ) SI_UNIT ( $, .STERADIAN. ) SOLID_ANGLE_UNIT ( ) );
#136 = CARTESIAN_POINT ( 'NONE',  ( 0.0000000000000000000, 0.06250000000000000000, 0.0000000000000000000 ) ) ;
#137 = DIRECTION ( 'NONE',  ( -0.0000000000000000000, -1.000000000000000000, -0.0000000000000000000 ) ) ;
#138 = DIRECTION ( 'NONE',  ( 0.0000000000000000000, 0.0000000000000000000, -1.000000000000000000 ) ) ;
#139 = CARTESIAN_POINT ( 'NONE',  ( 0.0000000000000000000, 0.0000000000000000000, 0.0000000000000000000 ) ) ;
#140 = DIRECTION ( 'NONE',  ( 0.0000000000000000000, 1.000000000000000000, 0.0000000000000000000 ) ) ;
#141 = DIRECTION ( 'NONE',  ( 0.0000000000000000000, 0.0000000000000000000, 1.000000000000000000 ) ) ;
#142 = CARTESIAN_POINT ( 'NONE',  ( 0.0000000000000000000, 0.06250000000000000000, 0.0000000000000000000 ) ) ;
#143 = LINE ( 'NONE', #18, #146 ) ;
#144 = AXIS2_PLACEMENT_3D ( 'NONE', #22, #23, #24 ) ;
#145 = AXIS2_PLACEMENT_3D ( 'NONE', #26, #27, #28 ) ;
#146 = VECTOR ( 'NONE', #19, 39.37007874015748100 ) ;
#147 = DIMENSIONAL_EXPONENTS ( 1.000000000000000000, 0.0000000000000000000, 0.0000000000000000000, 0.0000000000000000000, 0.0000000000000000000, 0.0000000000000000000, 0.0000000000000000000 ) ;
#148 = DIMENSIONAL_EXPONENTS ( 1.000000000000000000, 0.0000000000000000000, 0.0000000000000000000, 0.0000000000000000000, 0.0000000000000000000, 0.0000000000000000000, 0.0000000000000000000 ) ;
#149 = PRODUCT ( 'D063D', 'D063D', '', ( #83 ) ) ;
ENDSEC;
END-ISO-10303-21;
