ISO-10303-21;
HEADER;
FILE_DESCRIPTION (( 'STEP AP214' ),
    '1' );
FILE_NAME ('D063E.step',
    '2012-04-20T20:52:03',
    ( '' ),
    ( '' ),
    'SwSTEP 2.0',
    'SolidWorks 2012',
    '' );
FILE_SCHEMA (( 'AUTOMOTIVE_DESIGN' ));
ENDSEC;

DATA;
#1 = DIRECTION ( 'NONE',  ( 0.0000000000000000000, 0.0000000000000000000, 1.000000000000000000 ) ) ;
#2 = FILL_AREA_STYLE_COLOUR ( '', #59 ) ;
#3 = FILL_AREA_STYLE_COLOUR ( '', #73 ) ;
#4 = FILL_AREA_STYLE ('',( #3 ) ) ;
#5 = SURFACE_STYLE_FILL_AREA ( #4 ) ;
#6 = SURFACE_SIDE_STYLE ('',( #5 ) ) ;
#7 = SURFACE_STYLE_USAGE ( .BOTH. , #6 ) ;
#8 = PRESENTATION_STYLE_ASSIGNMENT (( #7 ) ) ;
#9 =( LENGTH_UNIT ( ) NAMED_UNIT ( * ) SI_UNIT ( $, .METRE. ) );
#10 =( CONVERSION_BASED_UNIT ( 'INCH', #146 ) LENGTH_UNIT ( ) NAMED_UNIT ( #76 ) );
#11 =( NAMED_UNIT ( * ) PLANE_ANGLE_UNIT ( ) SI_UNIT ( $, .RADIAN. ) );
#12 =( NAMED_UNIT ( * ) SI_UNIT ( $, .STERADIAN. ) SOLID_ANGLE_UNIT ( ) );
#13 =( LENGTH_UNIT ( ) NAMED_UNIT ( * ) SI_UNIT ( $, .METRE. ) );
#14 =( CONVERSION_BASED_UNIT ( 'INCH', #147 ) LENGTH_UNIT ( ) NAMED_UNIT ( #75 ) );
#15 =( NAMED_UNIT ( * ) PLANE_ANGLE_UNIT ( ) SI_UNIT ( $, .RADIAN. ) );
#16 =( NAMED_UNIT ( * ) SI_UNIT ( $, .STERADIAN. ) SOLID_ANGLE_UNIT ( ) );
#17 = AXIS2_PLACEMENT_3D ( 'NONE', #120, #121, #122 ) ;
#18 = CLOSED_SHELL ( 'NONE', ( #63, #62, #61, #58 ) ) ;
#19 = AXIS2_PLACEMENT_3D ( 'NONE', #110, #111, #112 ) ;
#20 = FACE_OUTER_BOUND ( 'NONE', #39, .T. ) ;
#21 = FACE_OUTER_BOUND ( 'NONE', #40, .T. ) ;
#22 = FACE_OUTER_BOUND ( 'NONE', #37, .T. ) ;
#23 = AXIS2_PLACEMENT_3D ( 'NONE', #117, #118, #119 ) ;
#24 = VECTOR ( 'NONE', #115, 39.37007874015748100 ) ;
#25 = AXIS2_PLACEMENT_3D ( 'NONE', #126, #127, #128 ) ;
#26 = FACE_OUTER_BOUND ( 'NONE', #38, .T. ) ;
#27 = CYLINDRICAL_SURFACE ( 'NONE', #17, 0.3125000000000000000 ) ;
#28 = AXIS2_PLACEMENT_3D ( 'NONE', #138, #139, #1 ) ;
#29 = AXIS2_PLACEMENT_3D ( 'NONE', #123, #124, #125 ) ;
#30 = CYLINDRICAL_SURFACE ( 'NONE', #29, 0.3125000000000000000 ) ;
#31 = STYLED_ITEM ( 'NONE', ( #8 ), #101 ) ;
#32 = AXIS2_PLACEMENT_3D ( 'NONE', #129, #130, #131 ) ;
#33 = AXIS2_PLACEMENT_3D ( 'NONE', #132, #136, #137 ) ;
#34 = VECTOR ( 'NONE', #135, 39.37007874015748100 ) ;
#35 = PRESENTATION_LAYER_ASSIGNMENT (  '', '', ( #31 ) ) ;
#36 = MECHANICAL_DESIGN_GEOMETRIC_PRESENTATION_REPRESENTATION (  '', ( #31 ), #143 ) ;
#37 = EDGE_LOOP ( 'NONE', ( #49, #51, #50, #52 ) ) ;
#38 = EDGE_LOOP ( 'NONE', ( #45, #47, #46, #48 ) ) ;
#39 = EDGE_LOOP ( 'NONE', ( #53, #54 ) ) ;
#40 = EDGE_LOOP ( 'NONE', ( #55, #104 ) ) ;
#41 = VERTEX_POINT ( 'NONE', #105 ) ;
#42 = VERTEX_POINT ( 'NONE', #106 ) ;
#43 = VERTEX_POINT ( 'NONE', #107 ) ;
#44 = VERTEX_POINT ( 'NONE', #108 ) ;
#45 = ORIENTED_EDGE ( 'NONE', *, *, #64, .F. ) ;
#46 = ORIENTED_EDGE ( 'NONE', *, *, #65, .T. ) ;
#47 = ORIENTED_EDGE ( 'NONE', *, *, #60, .T. ) ;
#48 = ORIENTED_EDGE ( 'NONE', *, *, #66, .F. ) ;
#49 = ORIENTED_EDGE ( 'NONE', *, *, #60, .F. ) ;
#50 = ORIENTED_EDGE ( 'NONE', *, *, #66, .T. ) ;
#51 = ORIENTED_EDGE ( 'NONE', *, *, #67, .F. ) ;
#52 = ORIENTED_EDGE ( 'NONE', *, *, #68, .T. ) ;
#53 = ORIENTED_EDGE ( 'NONE', *, *, #67, .T. ) ;
#54 = ORIENTED_EDGE ( 'NONE', *, *, #64, .T. ) ;
#55 = ORIENTED_EDGE ( 'NONE', *, *, #68, .F. ) ;
#56 = APPLICATION_CONTEXT ( 'automotive_design' ) ;
#57 = APPLICATION_CONTEXT ( 'automotive_design' ) ;
#58 = ADVANCED_FACE ( 'NONE', ( #21 ), #109, .F. ) ;
#59 = COLOUR_RGB ( '',0.5686274509803921400, 0.5686274509803921400, 0.5882352941176470800 ) ;
#60 = EDGE_CURVE ( 'NONE', #44, #43, #113, .T. ) ;
#61 = ADVANCED_FACE ( 'NONE', ( #20 ), #116, .T. ) ;
#62 = ADVANCED_FACE ( 'NONE', ( #22 ), #27, .T. ) ;
#63 = ADVANCED_FACE ( 'NONE', ( #26 ), #30, .T. ) ;
#64 = EDGE_CURVE ( 'NONE', #44, #42, #72, .T. ) ;
#65 = EDGE_CURVE ( 'NONE', #43, #41, #71, .T. ) ;
#66 = EDGE_CURVE ( 'NONE', #42, #41, #133, .T. ) ;
#67 = EDGE_CURVE ( 'NONE', #42, #44, #70, .T. ) ;
#68 = EDGE_CURVE ( 'NONE', #41, #43, #69, .T. ) ;
#69 = CIRCLE ( 'NONE', #28, 0.3125000000000000000 ) ;
#70 = CIRCLE ( 'NONE', #33, 0.3125000000000000000 ) ;
#71 = CIRCLE ( 'NONE', #32, 0.3125000000000000000 ) ;
#72 = CIRCLE ( 'NONE', #25, 0.3125000000000000000 ) ;
#73 = COLOUR_RGB ( '',0.5686274509803921400, 0.5686274509803921400, 0.5882352941176470800 ) ;
#74 = PRODUCT_DEFINITION_FORMATION_WITH_SPECIFIED_SOURCE ( 'ANY', '', #78, .NOT_KNOWN. ) ;
#75 = DIMENSIONAL_EXPONENTS ( 1.000000000000000000, 0.0000000000000000000, 0.0000000000000000000, 0.0000000000000000000, 0.0000000000000000000, 0.0000000000000000000, 0.0000000000000000000 ) ;
#76 = DIMENSIONAL_EXPONENTS ( 1.000000000000000000, 0.0000000000000000000, 0.0000000000000000000, 0.0000000000000000000, 0.0000000000000000000, 0.0000000000000000000, 0.0000000000000000000 ) ;
#77 = DIMENSIONAL_EXPONENTS ( 1.000000000000000000, 0.0000000000000000000, 0.0000000000000000000, 0.0000000000000000000, 0.0000000000000000000, 0.0000000000000000000, 0.0000000000000000000 ) ;
#78 = PRODUCT ( 'D063E', 'D063E', '', ( #93 ) ) ;
#79 = APPLICATION_PROTOCOL_DEFINITION ( 'draft international standard', 'automotive_design', 1998, #56 ) ;
#80 = FILL_AREA_STYLE ('',( #2 ) ) ;
#81 = SURFACE_STYLE_FILL_AREA ( #80 ) ;
#82 = SURFACE_SIDE_STYLE ('',( #81 ) ) ;
#83 = SURFACE_STYLE_USAGE ( .BOTH. , #82 ) ;
#84 = PRESENTATION_STYLE_ASSIGNMENT (( #83 ) ) ;
#85 =( LENGTH_UNIT ( ) NAMED_UNIT ( * ) SI_UNIT ( $, .METRE. ) );
#86 =( CONVERSION_BASED_UNIT ( 'INCH', #140 ) LENGTH_UNIT ( ) NAMED_UNIT ( #77 ) );
#87 =( NAMED_UNIT ( * ) PLANE_ANGLE_UNIT ( ) SI_UNIT ( $, .RADIAN. ) );
#88 =( NAMED_UNIT ( * ) SI_UNIT ( $, .STERADIAN. ) SOLID_ANGLE_UNIT ( ) );
#89 = CARTESIAN_POINT ( 'NONE',  ( 0.0000000000000000000, 0.0000000000000000000, 0.0000000000000000000 ) ) ;
#90 = DIRECTION ( 'NONE',  ( 0.0000000000000000000, 0.0000000000000000000, 1.000000000000000000 ) ) ;
#91 = DIRECTION ( 'NONE',  ( 1.000000000000000000, 0.0000000000000000000, 0.0000000000000000000 ) ) ;
#92 = SHAPE_DEFINITION_REPRESENTATION ( #103, #96 ) ;
#93 = PRODUCT_CONTEXT ( 'NONE', #56, 'mechanical' ) ;
#94 = APPLICATION_PROTOCOL_DEFINITION ( 'draft international standard', 'automotive_design', 1998, #57 ) ;
#95 = UNCERTAINTY_MEASURE_WITH_UNIT (LENGTH_MEASURE( 1.000000000000000100E-005 ), #14, 'distance_accuracy_value', 'NONE');
#96 = ADVANCED_BREP_SHAPE_REPRESENTATION ( 'D063E', ( #101, #142 ), #144 ) ;
#97 = UNCERTAINTY_MEASURE_WITH_UNIT (LENGTH_MEASURE( 1.000000000000000100E-005 ), #86, 'distance_accuracy_value', 'NONE');
#98 = UNCERTAINTY_MEASURE_WITH_UNIT (LENGTH_MEASURE( 1.000000000000000100E-005 ), #10, 'distance_accuracy_value', 'NONE');
#99 = PRODUCT_DEFINITION ( 'UNKNOWN', '', #74, #102 ) ;
#100 = PRODUCT_RELATED_PRODUCT_CATEGORY ( 'part', '', ( #78 ) ) ;
#101 = MANIFOLD_SOLID_BREP ( 'Boss-Extrude1', #18 ) ;
#102 = PRODUCT_DEFINITION_CONTEXT ( 'detailed design', #57, 'design' ) ;
#103 = PRODUCT_DEFINITION_SHAPE ( 'NONE', 'NONE',  #99 ) ;
#104 = ORIENTED_EDGE ( 'NONE', *, *, #65, .F. ) ;
#105 = CARTESIAN_POINT ( 'NONE',  ( 0.0000000000000000000, 0.0000000000000000000, -0.3125000000000000000 ) ) ;
#106 = CARTESIAN_POINT ( 'NONE',  ( 0.0000000000000000000, 0.06250000000000000000, -0.3125000000000000000 ) ) ;
#107 = CARTESIAN_POINT ( 'NONE',  ( 3.827021247335478900E-017, 0.0000000000000000000, 0.3125000000000000000 ) ) ;
#108 = CARTESIAN_POINT ( 'NONE',  ( 3.827021247335478900E-017, 0.06250000000000000000, 0.3125000000000000000 ) ) ;
#109 = PLANE ( 'NONE',  #19 ) ;
#110 = CARTESIAN_POINT ( 'NONE',  ( 0.0000000000000000000, 0.0000000000000000000, 0.0000000000000000000 ) ) ;
#111 = DIRECTION ( 'NONE',  ( 0.0000000000000000000, 1.000000000000000000, 0.0000000000000000000 ) ) ;
#112 = DIRECTION ( 'NONE',  ( 0.0000000000000000000, -0.0000000000000000000, 1.000000000000000000 ) ) ;
#113 = LINE ( 'NONE', #114, #24 ) ;
#114 = CARTESIAN_POINT ( 'NONE',  ( 3.827021247335478900E-017, 0.06250000000000000000, 0.3125000000000000000 ) ) ;
#115 = DIRECTION ( 'NONE',  ( -0.0000000000000000000, -1.000000000000000000, -0.0000000000000000000 ) ) ;
#116 = PLANE ( 'NONE',  #23 ) ;
#117 = CARTESIAN_POINT ( 'NONE',  ( 0.0000000000000000000, 0.06250000000000000000, 0.0000000000000000000 ) ) ;
#118 = DIRECTION ( 'NONE',  ( 0.0000000000000000000, 1.000000000000000000, 0.0000000000000000000 ) ) ;
#119 = DIRECTION ( 'NONE',  ( 0.0000000000000000000, -0.0000000000000000000, 1.000000000000000000 ) ) ;
#120 = CARTESIAN_POINT ( 'NONE',  ( 0.0000000000000000000, 0.06250000000000000000, 0.0000000000000000000 ) ) ;
#121 = DIRECTION ( 'NONE',  ( -0.0000000000000000000, -1.000000000000000000, -0.0000000000000000000 ) ) ;
#122 = DIRECTION ( 'NONE',  ( 0.0000000000000000000, 0.0000000000000000000, -1.000000000000000000 ) ) ;
#123 = CARTESIAN_POINT ( 'NONE',  ( 0.0000000000000000000, 0.06250000000000000000, 0.0000000000000000000 ) ) ;
#124 = DIRECTION ( 'NONE',  ( -0.0000000000000000000, -1.000000000000000000, -0.0000000000000000000 ) ) ;
#125 = DIRECTION ( 'NONE',  ( 0.0000000000000000000, 0.0000000000000000000, -1.000000000000000000 ) ) ;
#126 = CARTESIAN_POINT ( 'NONE',  ( 0.0000000000000000000, 0.06250000000000000000, 0.0000000000000000000 ) ) ;
#127 = DIRECTION ( 'NONE',  ( 0.0000000000000000000, 1.000000000000000000, 0.0000000000000000000 ) ) ;
#128 = DIRECTION ( 'NONE',  ( 0.0000000000000000000, 0.0000000000000000000, 1.000000000000000000 ) ) ;
#129 = CARTESIAN_POINT ( 'NONE',  ( 0.0000000000000000000, 0.0000000000000000000, 0.0000000000000000000 ) ) ;
#130 = DIRECTION ( 'NONE',  ( 0.0000000000000000000, 1.000000000000000000, 0.0000000000000000000 ) ) ;
#131 = DIRECTION ( 'NONE',  ( 0.0000000000000000000, 0.0000000000000000000, 1.000000000000000000 ) ) ;
#132 = CARTESIAN_POINT ( 'NONE',  ( 0.0000000000000000000, 0.06250000000000000000, 0.0000000000000000000 ) ) ;
#133 = LINE ( 'NONE', #134, #34 ) ;
#134 = CARTESIAN_POINT ( 'NONE',  ( 0.0000000000000000000, 0.06250000000000000000, -0.3125000000000000000 ) ) ;
#135 = DIRECTION ( 'NONE',  ( -0.0000000000000000000, -1.000000000000000000, -0.0000000000000000000 ) ) ;
#136 = DIRECTION ( 'NONE',  ( 0.0000000000000000000, 1.000000000000000000, 0.0000000000000000000 ) ) ;
#137 = DIRECTION ( 'NONE',  ( 0.0000000000000000000, 0.0000000000000000000, 1.000000000000000000 ) ) ;
#138 = CARTESIAN_POINT ( 'NONE',  ( 0.0000000000000000000, 0.0000000000000000000, 0.0000000000000000000 ) ) ;
#139 = DIRECTION ( 'NONE',  ( 0.0000000000000000000, 1.000000000000000000, 0.0000000000000000000 ) ) ;
#140 = LENGTH_MEASURE_WITH_UNIT ( LENGTH_MEASURE( 0.02539999999999999900 ), #85 );
#141 = MECHANICAL_DESIGN_GEOMETRIC_PRESENTATION_REPRESENTATION (  '', ( #148 ), #145 ) ;
#142 = AXIS2_PLACEMENT_3D ( 'NONE', #89, #90, #91 ) ;
#143 =( GEOMETRIC_REPRESENTATION_CONTEXT ( 3 ) GLOBAL_UNCERTAINTY_ASSIGNED_CONTEXT ( ( #98 ) ) GLOBAL_UNIT_ASSIGNED_CONTEXT ( ( #10, #11, #12 ) ) REPRESENTATION_CONTEXT ( 'NONE', 'WORKASPACE' ) );
#144 =( GEOMETRIC_REPRESENTATION_CONTEXT ( 3 ) GLOBAL_UNCERTAINTY_ASSIGNED_CONTEXT ( ( #95 ) ) GLOBAL_UNIT_ASSIGNED_CONTEXT ( ( #14, #15, #16 ) ) REPRESENTATION_CONTEXT ( 'NONE', 'WORKASPACE' ) );
#145 =( GEOMETRIC_REPRESENTATION_CONTEXT ( 3 ) GLOBAL_UNCERTAINTY_ASSIGNED_CONTEXT ( ( #97 ) ) GLOBAL_UNIT_ASSIGNED_CONTEXT ( ( #86, #87, #88 ) ) REPRESENTATION_CONTEXT ( 'NONE', 'WORKASPACE' ) );
#146 = LENGTH_MEASURE_WITH_UNIT ( LENGTH_MEASURE( 0.02539999999999999900 ), #9 );
#147 = LENGTH_MEASURE_WITH_UNIT ( LENGTH_MEASURE( 0.02539999999999999900 ), #13 );
#148 = STYLED_ITEM ( 'NONE', ( #84 ), #96 ) ;
#149 = PRESENTATION_LAYER_ASSIGNMENT (  '', '', ( #148 ) ) ;
ENDSEC;
END-ISO-10303-21;
