ISO-10303-21;
HEADER;
FILE_DESCRIPTION (( 'STEP AP214' ),
    '1' );
FILE_NAME ('D063H.step',
    '2012-04-20T20:52:11',
    ( '' ),
    ( '' ),
    'SwSTEP 2.0',
    'SolidWorks 2012',
    '' );
FILE_SCHEMA (( 'AUTOMOTIVE_DESIGN' ));
ENDSEC;

DATA;
#1 = EDGE_LOOP ( 'NONE', ( #13, #15, #14, #16 ) ) ;
#2 = EDGE_LOOP ( 'NONE', ( #9, #11, #10, #12 ) ) ;
#3 = EDGE_LOOP ( 'NONE', ( #125, #126 ) ) ;
#4 = EDGE_LOOP ( 'NONE', ( #127, #128 ) ) ;
#5 = VERTEX_POINT ( 'NONE', #129 ) ;
#6 = VERTEX_POINT ( 'NONE', #130 ) ;
#7 = VERTEX_POINT ( 'NONE', #131 ) ;
#8 = VERTEX_POINT ( 'NONE', #132 ) ;
#9 = ORIENTED_EDGE ( 'NONE', *, *, #81, .F. ) ;
#10 = ORIENTED_EDGE ( 'NONE', *, *, #83, .T. ) ;
#11 = ORIENTED_EDGE ( 'NONE', *, *, #82, .T. ) ;
#12 = ORIENTED_EDGE ( 'NONE', *, *, #84, .F. ) ;
#13 = ORIENTED_EDGE ( 'NONE', *, *, #82, .F. ) ;
#14 = ORIENTED_EDGE ( 'NONE', *, *, #84, .T. ) ;
#15 = ORIENTED_EDGE ( 'NONE', *, *, #85, .F. ) ;
#16 = ORIENTED_EDGE ( 'NONE', *, *, #86, .T. ) ;
#17 = FACE_OUTER_BOUND ( 'NONE', #1, .T. ) ;
#18 = AXIS2_PLACEMENT_3D ( 'NONE', #57, #58, #59 ) ;
#19 = AXIS2_PLACEMENT_3D ( 'NONE', #148, #149, #50 ) ;
#20 = FACE_OUTER_BOUND ( 'NONE', #2, .T. ) ;
#21 = AXIS2_PLACEMENT_3D ( 'NONE', #54, #55, #56 ) ;
#22 = CYLINDRICAL_SURFACE ( 'NONE', #21, 0.5000000000000000000 ) ;
#23 = AXIS2_PLACEMENT_3D ( 'NONE', #72, #73, #74 ) ;
#24 = AXIS2_PLACEMENT_3D ( 'NONE', #60, #64, #65 ) ;
#25 = VECTOR ( 'NONE', #63, 39.37007874015748100 ) ;
#26 = AXIS2_PLACEMENT_3D ( 'NONE', #66, #70, #71 ) ;
#27 = VECTOR ( 'NONE', #69, 39.37007874015748100 ) ;
#28 = LENGTH_MEASURE_WITH_UNIT ( LENGTH_MEASURE( 0.02539999999999999900 ), #75 );
#29 = UNCERTAINTY_MEASURE_WITH_UNIT (LENGTH_MEASURE( 1.000000000000000100E-005 ), #76, 'distance_accuracy_value', 'NONE');
#30 = UNCERTAINTY_MEASURE_WITH_UNIT (LENGTH_MEASURE( 1.000000000000000100E-005 ), #144, 'distance_accuracy_value', 'NONE');
#31 = UNCERTAINTY_MEASURE_WITH_UNIT (LENGTH_MEASURE( 1.000000000000000100E-005 ), #100, 'distance_accuracy_value', 'NONE');
#32 = ADVANCED_BREP_SHAPE_REPRESENTATION ( 'D063H', ( #40, #45 ), #123 ) ;
#33 = ADVANCED_FACE ( 'NONE', ( #112 ), #133, .F. ) ;
#34 = CIRCLE ( 'NONE', #23, 0.5000000000000000000 ) ;
#35 = APPLICATION_CONTEXT ( 'automotive_design' ) ;
#36 = APPLICATION_CONTEXT ( 'automotive_design' ) ;
#37 = COLOUR_RGB ( '',0.5686274509803921400, 0.5686274509803921400, 0.5882352941176470800 ) ;
#38 = PRODUCT_DEFINITION ( 'UNKNOWN', '', #47, #48 ) ;
#39 = PRODUCT_RELATED_PRODUCT_CATEGORY ( 'part', '', ( #121 ) ) ;
#40 = MANIFOLD_SOLID_BREP ( 'Boss-Extrude1', #110 ) ;
#41 = PRODUCT_DEFINITION_SHAPE ( 'NONE', 'NONE',  #38 ) ;
#42 = MECHANICAL_DESIGN_GEOMETRIC_PRESENTATION_REPRESENTATION (  '', ( #46 ), #124 ) ;
#43 = LENGTH_MEASURE_WITH_UNIT ( LENGTH_MEASURE( 0.02539999999999999900 ), #99 );
#44 = PRESENTATION_LAYER_ASSIGNMENT (  '', '', ( #46 ) ) ;
#45 = AXIS2_PLACEMENT_3D ( 'NONE', #103, #104, #105 ) ;
#46 = STYLED_ITEM ( 'NONE', ( #98 ), #32 ) ;
#47 = PRODUCT_DEFINITION_FORMATION_WITH_SPECIFIED_SOURCE ( 'ANY', '', #121, .NOT_KNOWN. ) ;
#48 = PRODUCT_DEFINITION_CONTEXT ( 'detailed design', #36, 'design' ) ;
#49 = APPLICATION_PROTOCOL_DEFINITION ( 'draft international standard', 'automotive_design', 1998, #36 ) ;
#50 = DIRECTION ( 'NONE',  ( 0.0000000000000000000, -0.0000000000000000000, 1.000000000000000000 ) ) ;
#51 = CARTESIAN_POINT ( 'NONE',  ( 0.0000000000000000000, 0.06250000000000000000, 0.0000000000000000000 ) ) ;
#52 = DIRECTION ( 'NONE',  ( -0.0000000000000000000, -1.000000000000000000, -0.0000000000000000000 ) ) ;
#53 = DIRECTION ( 'NONE',  ( 0.0000000000000000000, 0.0000000000000000000, -1.000000000000000000 ) ) ;
#54 = CARTESIAN_POINT ( 'NONE',  ( 0.0000000000000000000, 0.06250000000000000000, 0.0000000000000000000 ) ) ;
#55 = DIRECTION ( 'NONE',  ( -0.0000000000000000000, -1.000000000000000000, -0.0000000000000000000 ) ) ;
#56 = DIRECTION ( 'NONE',  ( 0.0000000000000000000, 0.0000000000000000000, -1.000000000000000000 ) ) ;
#57 = CARTESIAN_POINT ( 'NONE',  ( 0.0000000000000000000, 0.06250000000000000000, 0.0000000000000000000 ) ) ;
#58 = DIRECTION ( 'NONE',  ( 0.0000000000000000000, 1.000000000000000000, 0.0000000000000000000 ) ) ;
#59 = DIRECTION ( 'NONE',  ( 0.0000000000000000000, 0.0000000000000000000, 1.000000000000000000 ) ) ;
#60 = CARTESIAN_POINT ( 'NONE',  ( 0.0000000000000000000, 0.0000000000000000000, 0.0000000000000000000 ) ) ;
#61 = LINE ( 'NONE', #62, #25 ) ;
#62 = CARTESIAN_POINT ( 'NONE',  ( 6.123233995736766000E-017, 0.06250000000000000000, 0.5000000000000000000 ) ) ;
#63 = DIRECTION ( 'NONE',  ( -0.0000000000000000000, -1.000000000000000000, -0.0000000000000000000 ) ) ;
#64 = DIRECTION ( 'NONE',  ( 0.0000000000000000000, 1.000000000000000000, 0.0000000000000000000 ) ) ;
#65 = DIRECTION ( 'NONE',  ( 0.0000000000000000000, 0.0000000000000000000, 1.000000000000000000 ) ) ;
#66 = CARTESIAN_POINT ( 'NONE',  ( 0.0000000000000000000, 0.06250000000000000000, 0.0000000000000000000 ) ) ;
#67 = LINE ( 'NONE', #68, #27 ) ;
#68 = CARTESIAN_POINT ( 'NONE',  ( 0.0000000000000000000, 0.06250000000000000000, -0.5000000000000000000 ) ) ;
#69 = DIRECTION ( 'NONE',  ( -0.0000000000000000000, -1.000000000000000000, -0.0000000000000000000 ) ) ;
#70 = DIRECTION ( 'NONE',  ( 0.0000000000000000000, 1.000000000000000000, 0.0000000000000000000 ) ) ;
#71 = DIRECTION ( 'NONE',  ( 0.0000000000000000000, 0.0000000000000000000, 1.000000000000000000 ) ) ;
#72 = CARTESIAN_POINT ( 'NONE',  ( 0.0000000000000000000, 0.0000000000000000000, 0.0000000000000000000 ) ) ;
#73 = DIRECTION ( 'NONE',  ( 0.0000000000000000000, 1.000000000000000000, 0.0000000000000000000 ) ) ;
#74 = DIRECTION ( 'NONE',  ( 0.0000000000000000000, 0.0000000000000000000, 1.000000000000000000 ) ) ;
#75 =( LENGTH_UNIT ( ) NAMED_UNIT ( * ) SI_UNIT ( $, .METRE. ) );
#76 =( CONVERSION_BASED_UNIT ( 'INCH', #28 ) LENGTH_UNIT ( ) NAMED_UNIT ( #119 ) );
#77 =( NAMED_UNIT ( * ) PLANE_ANGLE_UNIT ( ) SI_UNIT ( $, .RADIAN. ) );
#78 = ADVANCED_FACE ( 'NONE', ( #117 ), #147, .T. ) ;
#79 = ADVANCED_FACE ( 'NONE', ( #17 ), #108, .T. ) ;
#80 = ADVANCED_FACE ( 'NONE', ( #20 ), #22, .T. ) ;
#81 = EDGE_CURVE ( 'NONE', #8, #6, #90, .T. ) ;
#82 = EDGE_CURVE ( 'NONE', #8, #5, #61, .T. ) ;
#83 = EDGE_CURVE ( 'NONE', #5, #7, #88, .T. ) ;
#84 = EDGE_CURVE ( 'NONE', #6, #7, #67, .T. ) ;
#85 = EDGE_CURVE ( 'NONE', #6, #8, #89, .T. ) ;
#86 = EDGE_CURVE ( 'NONE', #7, #5, #34, .T. ) ;
#87 = COLOUR_RGB ( '',0.5686274509803921400, 0.5686274509803921400, 0.5882352941176470800 ) ;
#88 = CIRCLE ( 'NONE', #24, 0.5000000000000000000 ) ;
#89 = CIRCLE ( 'NONE', #26, 0.5000000000000000000 ) ;
#90 = CIRCLE ( 'NONE', #18, 0.5000000000000000000 ) ;
#91 =( NAMED_UNIT ( * ) SI_UNIT ( $, .STERADIAN. ) SOLID_ANGLE_UNIT ( ) );
#92 = APPLICATION_PROTOCOL_DEFINITION ( 'draft international standard', 'automotive_design', 1998, #35 ) ;
#93 = FILL_AREA_STYLE_COLOUR ( '', #37 ) ;
#94 = FILL_AREA_STYLE ('',( #93 ) ) ;
#95 = SURFACE_STYLE_FILL_AREA ( #94 ) ;
#96 = SURFACE_SIDE_STYLE ('',( #95 ) ) ;
#97 = SURFACE_STYLE_USAGE ( .BOTH. , #96 ) ;
#98 = PRESENTATION_STYLE_ASSIGNMENT (( #97 ) ) ;
#99 =( LENGTH_UNIT ( ) NAMED_UNIT ( * ) SI_UNIT ( $, .METRE. ) );
#100 =( CONVERSION_BASED_UNIT ( 'INCH', #43 ) LENGTH_UNIT ( ) NAMED_UNIT ( #120 ) );
#101 =( NAMED_UNIT ( * ) PLANE_ANGLE_UNIT ( ) SI_UNIT ( $, .RADIAN. ) );
#102 =( NAMED_UNIT ( * ) SI_UNIT ( $, .STERADIAN. ) SOLID_ANGLE_UNIT ( ) );
#103 = CARTESIAN_POINT ( 'NONE',  ( 0.0000000000000000000, 0.0000000000000000000, 0.0000000000000000000 ) ) ;
#104 = DIRECTION ( 'NONE',  ( 0.0000000000000000000, 0.0000000000000000000, 1.000000000000000000 ) ) ;
#105 = DIRECTION ( 'NONE',  ( 1.000000000000000000, 0.0000000000000000000, 0.0000000000000000000 ) ) ;
#106 = SHAPE_DEFINITION_REPRESENTATION ( #41, #32 ) ;
#107 = PRODUCT_CONTEXT ( 'NONE', #35, 'mechanical' ) ;
#108 = CYLINDRICAL_SURFACE ( 'NONE', #113, 0.5000000000000000000 ) ;
#109 = STYLED_ITEM ( 'NONE', ( #142 ), #40 ) ;
#110 = CLOSED_SHELL ( 'NONE', ( #80, #79, #78, #33 ) ) ;
#111 = AXIS2_PLACEMENT_3D ( 'NONE', #134, #135, #136 ) ;
#112 = FACE_OUTER_BOUND ( 'NONE', #4, .T. ) ;
#113 = AXIS2_PLACEMENT_3D ( 'NONE', #51, #52, #53 ) ;
#114 = PRESENTATION_LAYER_ASSIGNMENT (  '', '', ( #109 ) ) ;
#115 = MECHANICAL_DESIGN_GEOMETRIC_PRESENTATION_REPRESENTATION (  '', ( #109 ), #122 ) ;
#116 = LENGTH_MEASURE_WITH_UNIT ( LENGTH_MEASURE( 0.02539999999999999900 ), #143 );
#117 = FACE_OUTER_BOUND ( 'NONE', #3, .T. ) ;
#118 = DIMENSIONAL_EXPONENTS ( 1.000000000000000000, 0.0000000000000000000, 0.0000000000000000000, 0.0000000000000000000, 0.0000000000000000000, 0.0000000000000000000, 0.0000000000000000000 ) ;
#119 = DIMENSIONAL_EXPONENTS ( 1.000000000000000000, 0.0000000000000000000, 0.0000000000000000000, 0.0000000000000000000, 0.0000000000000000000, 0.0000000000000000000, 0.0000000000000000000 ) ;
#120 = DIMENSIONAL_EXPONENTS ( 1.000000000000000000, 0.0000000000000000000, 0.0000000000000000000, 0.0000000000000000000, 0.0000000000000000000, 0.0000000000000000000, 0.0000000000000000000 ) ;
#121 = PRODUCT ( 'D063H', 'D063H', '', ( #107 ) ) ;
#122 =( GEOMETRIC_REPRESENTATION_CONTEXT ( 3 ) GLOBAL_UNCERTAINTY_ASSIGNED_CONTEXT ( ( #30 ) ) GLOBAL_UNIT_ASSIGNED_CONTEXT ( ( #144, #145, #146 ) ) REPRESENTATION_CONTEXT ( 'NONE', 'WORKASPACE' ) );
#123 =( GEOMETRIC_REPRESENTATION_CONTEXT ( 3 ) GLOBAL_UNCERTAINTY_ASSIGNED_CONTEXT ( ( #29 ) ) GLOBAL_UNIT_ASSIGNED_CONTEXT ( ( #76, #77, #91 ) ) REPRESENTATION_CONTEXT ( 'NONE', 'WORKASPACE' ) );
#124 =( GEOMETRIC_REPRESENTATION_CONTEXT ( 3 ) GLOBAL_UNCERTAINTY_ASSIGNED_CONTEXT ( ( #31 ) ) GLOBAL_UNIT_ASSIGNED_CONTEXT ( ( #100, #101, #102 ) ) REPRESENTATION_CONTEXT ( 'NONE', 'WORKASPACE' ) );
#125 = ORIENTED_EDGE ( 'NONE', *, *, #85, .T. ) ;
#126 = ORIENTED_EDGE ( 'NONE', *, *, #81, .T. ) ;
#127 = ORIENTED_EDGE ( 'NONE', *, *, #86, .F. ) ;
#128 = ORIENTED_EDGE ( 'NONE', *, *, #83, .F. ) ;
#129 = CARTESIAN_POINT ( 'NONE',  ( 6.123233995736766000E-017, 0.0000000000000000000, 0.5000000000000000000 ) ) ;
#130 = CARTESIAN_POINT ( 'NONE',  ( 0.0000000000000000000, 0.06250000000000000000, -0.5000000000000000000 ) ) ;
#131 = CARTESIAN_POINT ( 'NONE',  ( 0.0000000000000000000, 0.0000000000000000000, -0.5000000000000000000 ) ) ;
#132 = CARTESIAN_POINT ( 'NONE',  ( 6.123233995736766000E-017, 0.06250000000000000000, 0.5000000000000000000 ) ) ;
#133 = PLANE ( 'NONE',  #111 ) ;
#134 = CARTESIAN_POINT ( 'NONE',  ( 0.0000000000000000000, 0.0000000000000000000, 0.0000000000000000000 ) ) ;
#135 = DIRECTION ( 'NONE',  ( 0.0000000000000000000, 1.000000000000000000, 0.0000000000000000000 ) ) ;
#136 = DIRECTION ( 'NONE',  ( 0.0000000000000000000, -0.0000000000000000000, 1.000000000000000000 ) ) ;
#137 = FILL_AREA_STYLE_COLOUR ( '', #87 ) ;
#138 = FILL_AREA_STYLE ('',( #137 ) ) ;
#139 = SURFACE_STYLE_FILL_AREA ( #138 ) ;
#140 = SURFACE_SIDE_STYLE ('',( #139 ) ) ;
#141 = SURFACE_STYLE_USAGE ( .BOTH. , #140 ) ;
#142 = PRESENTATION_STYLE_ASSIGNMENT (( #141 ) ) ;
#143 =( LENGTH_UNIT ( ) NAMED_UNIT ( * ) SI_UNIT ( $, .METRE. ) );
#144 =( CONVERSION_BASED_UNIT ( 'INCH', #116 ) LENGTH_UNIT ( ) NAMED_UNIT ( #118 ) );
#145 =( NAMED_UNIT ( * ) PLANE_ANGLE_UNIT ( ) SI_UNIT ( $, .RADIAN. ) );
#146 =( NAMED_UNIT ( * ) SI_UNIT ( $, .STERADIAN. ) SOLID_ANGLE_UNIT ( ) );
#147 = PLANE ( 'NONE',  #19 ) ;
#148 = CARTESIAN_POINT ( 'NONE',  ( 0.0000000000000000000, 0.06250000000000000000, 0.0000000000000000000 ) ) ;
#149 = DIRECTION ( 'NONE',  ( 0.0000000000000000000, 1.000000000000000000, 0.0000000000000000000 ) ) ;
ENDSEC;
END-ISO-10303-21;
