ISO-10303-21;
HEADER;
FILE_DESCRIPTION (( 'STEP AP214' ),
    '1' );
FILE_NAME ('D125A1.step',
    '2012-04-20T20:53:06',
    ( '' ),
    ( '' ),
    'SwSTEP 2.0',
    'SolidWorks 2012',
    '' );
FILE_SCHEMA (( 'AUTOMOTIVE_DESIGN' ));
ENDSEC;

DATA;
#1 =( GEOMETRIC_REPRESENTATION_CONTEXT ( 3 ) GLOBAL_UNCERTAINTY_ASSIGNED_CONTEXT ( ( #110 ) ) GLOBAL_UNIT_ASSIGNED_CONTEXT ( ( #50, #51, #52 ) ) REPRESENTATION_CONTEXT ( 'NONE', 'WORKASPACE' ) );
#2 =( GEOMETRIC_REPRESENTATION_CONTEXT ( 3 ) GLOBAL_UNCERTAINTY_ASSIGNED_CONTEXT ( ( #113 ) ) GLOBAL_UNIT_ASSIGNED_CONTEXT ( ( #90, #91, #92 ) ) REPRESENTATION_CONTEXT ( 'NONE', 'WORKASPACE' ) );
#3 =( GEOMETRIC_REPRESENTATION_CONTEXT ( 3 ) GLOBAL_UNCERTAINTY_ASSIGNED_CONTEXT ( ( #111 ) ) GLOBAL_UNIT_ASSIGNED_CONTEXT ( ( #101, #102, #103 ) ) REPRESENTATION_CONTEXT ( 'NONE', 'WORKASPACE' ) );
#4 = ORIENTED_EDGE ( 'NONE', *, *, #133, .T. ) ;
#5 = ORIENTED_EDGE ( 'NONE', *, *, #134, .T. ) ;
#6 = ORIENTED_EDGE ( 'NONE', *, *, #133, .F. ) ;
#7 = ORIENTED_EDGE ( 'NONE', *, *, #132, .T. ) ;
#8 = ORIENTED_EDGE ( 'NONE', *, *, #129, .F. ) ;
#9 = ORIENTED_EDGE ( 'NONE', *, *, #132, .F. ) ;
#10 = ORIENTED_EDGE ( 'NONE', *, *, #129, .T. ) ;
#11 = ORIENTED_EDGE ( 'NONE', *, *, #131, .T. ) ;
#12 = ORIENTED_EDGE ( 'NONE', *, *, #130, .F. ) ;
#13 = VECTOR ( 'NONE', #59, 39.37007874015748100 ) ;
#14 = FACE_OUTER_BOUND ( 'NONE', #124, .T. ) ;
#15 = AXIS2_PLACEMENT_3D ( 'NONE', #72, #73, #74 ) ;
#16 = LENGTH_MEASURE_WITH_UNIT ( LENGTH_MEASURE( 0.02539999999999999900 ), #49 );
#17 = MECHANICAL_DESIGN_GEOMETRIC_PRESENTATION_REPRESENTATION (  '', ( #19 ), #1 ) ;
#18 = CLOSED_SHELL ( 'NONE', ( #138, #137, #136, #135 ) ) ;
#19 = STYLED_ITEM ( 'NONE', ( #48 ), #23 ) ;
#20 = PRESENTATION_LAYER_ASSIGNMENT (  '', '', ( #19 ) ) ;
#21 = AXIS2_PLACEMENT_3D ( 'NONE', #63, #64, #65 ) ;
#22 = AXIS2_PLACEMENT_3D ( 'NONE', #60, #61, #62 ) ;
#23 = MANIFOLD_SOLID_BREP ( 'Boss-Extrude1', #18 ) ;
#24 = PRODUCT_DEFINITION_SHAPE ( 'NONE', 'NONE',  #144 ) ;
#25 = PRODUCT_DEFINITION_CONTEXT ( 'detailed design', #29, 'design' ) ;
#26 = SURFACE_SIDE_STYLE ('',( #27 ) ) ;
#27 = SURFACE_STYLE_FILL_AREA ( #116 ) ;
#28 = APPLICATION_CONTEXT ( 'automotive_design' ) ;
#29 = APPLICATION_CONTEXT ( 'automotive_design' ) ;
#30 = MECHANICAL_DESIGN_GEOMETRIC_PRESENTATION_REPRESENTATION (  '', ( #33 ), #3 ) ;
#31 = CYLINDRICAL_SURFACE ( 'NONE', #39, 0.07812500000000013900 ) ;
#32 = AXIS2_PLACEMENT_3D ( 'NONE', #83, #84, #85 ) ;
#33 = STYLED_ITEM ( 'NONE', ( #99 ), #112 ) ;
#34 = VECTOR ( 'NONE', #69, 39.37007874015748100 ) ;
#35 = FACE_OUTER_BOUND ( 'NONE', #123, .T. ) ;
#36 = PRESENTATION_LAYER_ASSIGNMENT (  '', '', ( #33 ) ) ;
#37 = LENGTH_MEASURE_WITH_UNIT ( LENGTH_MEASURE( 0.02539999999999999900 ), #89 );
#38 = PRODUCT_DEFINITION_FORMATION_WITH_SPECIFIED_SOURCE ( 'ANY', '', #149, .NOT_KNOWN. ) ;
#39 = AXIS2_PLACEMENT_3D ( 'NONE', #86, #87, #88 ) ;
#40 = LENGTH_MEASURE_WITH_UNIT ( LENGTH_MEASURE( 0.02539999999999999900 ), #100 );
#41 = AXIS2_PLACEMENT_3D ( 'NONE', #104, #105, #106 ) ;
#42 = CYLINDRICAL_SURFACE ( 'NONE', #32, 0.07812500000000013900 ) ;
#43 = FACE_OUTER_BOUND ( 'NONE', #122, .T. ) ;
#44 = FACE_OUTER_BOUND ( 'NONE', #121, .T. ) ;
#45 = AXIS2_PLACEMENT_3D ( 'NONE', #80, #81, #82 ) ;
#46 = AXIS2_PLACEMENT_3D ( 'NONE', #76, #77, #78 ) ;
#47 = AXIS2_PLACEMENT_3D ( 'NONE', #66, #70, #71 ) ;
#48 = PRESENTATION_STYLE_ASSIGNMENT (( #114 ) ) ;
#49 =( LENGTH_UNIT ( ) NAMED_UNIT ( * ) SI_UNIT ( $, .METRE. ) );
#50 =( CONVERSION_BASED_UNIT ( 'INCH', #16 ) LENGTH_UNIT ( ) NAMED_UNIT ( #146 ) );
#51 =( NAMED_UNIT ( * ) PLANE_ANGLE_UNIT ( ) SI_UNIT ( $, .RADIAN. ) );
#52 =( NAMED_UNIT ( * ) SI_UNIT ( $, .STERADIAN. ) SOLID_ANGLE_UNIT ( ) );
#53 = CARTESIAN_POINT ( 'NONE',  ( 0.0000000000000000000, 0.0000000000000000000, -0.07812500000000013900 ) ) ;
#54 = CARTESIAN_POINT ( 'NONE',  ( 9.567553118338714300E-018, 0.0000000000000000000, 0.07812500000000013900 ) ) ;
#55 = CARTESIAN_POINT ( 'NONE',  ( 9.567553118338714300E-018, 0.1250000000000000000, 0.07812500000000013900 ) ) ;
#56 = CARTESIAN_POINT ( 'NONE',  ( 0.0000000000000000000, 0.1250000000000000000, -0.07812500000000013900 ) ) ;
#57 = LINE ( 'NONE', #58, #13 ) ;
#58 = CARTESIAN_POINT ( 'NONE',  ( 9.567553118338714300E-018, 0.1250000000000000000, 0.07812500000000013900 ) ) ;
#59 = DIRECTION ( 'NONE',  ( -0.0000000000000000000, -1.000000000000000000, -0.0000000000000000000 ) ) ;
#60 = CARTESIAN_POINT ( 'NONE',  ( 0.0000000000000000000, 0.1250000000000000000, 0.0000000000000000000 ) ) ;
#61 = DIRECTION ( 'NONE',  ( 0.0000000000000000000, 1.000000000000000000, 0.0000000000000000000 ) ) ;
#62 = DIRECTION ( 'NONE',  ( 0.0000000000000000000, 0.0000000000000000000, 1.000000000000000000 ) ) ;
#63 = CARTESIAN_POINT ( 'NONE',  ( 0.0000000000000000000, 0.0000000000000000000, 0.0000000000000000000 ) ) ;
#64 = DIRECTION ( 'NONE',  ( 0.0000000000000000000, 1.000000000000000000, 0.0000000000000000000 ) ) ;
#65 = DIRECTION ( 'NONE',  ( 0.0000000000000000000, 0.0000000000000000000, 1.000000000000000000 ) ) ;
#66 = CARTESIAN_POINT ( 'NONE',  ( 0.0000000000000000000, 0.1250000000000000000, 0.0000000000000000000 ) ) ;
#67 = LINE ( 'NONE', #68, #34 ) ;
#68 = CARTESIAN_POINT ( 'NONE',  ( 0.0000000000000000000, 0.1250000000000000000, -0.07812500000000013900 ) ) ;
#69 = DIRECTION ( 'NONE',  ( -0.0000000000000000000, -1.000000000000000000, -0.0000000000000000000 ) ) ;
#70 = DIRECTION ( 'NONE',  ( 0.0000000000000000000, 1.000000000000000000, 0.0000000000000000000 ) ) ;
#71 = DIRECTION ( 'NONE',  ( 0.0000000000000000000, 0.0000000000000000000, 1.000000000000000000 ) ) ;
#72 = CARTESIAN_POINT ( 'NONE',  ( 0.0000000000000000000, 0.0000000000000000000, 0.0000000000000000000 ) ) ;
#73 = DIRECTION ( 'NONE',  ( 0.0000000000000000000, 1.000000000000000000, 0.0000000000000000000 ) ) ;
#74 = DIRECTION ( 'NONE',  ( 0.0000000000000000000, 0.0000000000000000000, 1.000000000000000000 ) ) ;
#75 = PLANE ( 'NONE',  #46 ) ;
#76 = CARTESIAN_POINT ( 'NONE',  ( 0.0000000000000000000, 0.0000000000000000000, 0.0000000000000000000 ) ) ;
#77 = DIRECTION ( 'NONE',  ( 0.0000000000000000000, 1.000000000000000000, 0.0000000000000000000 ) ) ;
#78 = DIRECTION ( 'NONE',  ( 0.0000000000000000000, -0.0000000000000000000, 1.000000000000000000 ) ) ;
#79 = PLANE ( 'NONE',  #45 ) ;
#80 = CARTESIAN_POINT ( 'NONE',  ( 0.0000000000000000000, 0.1250000000000000000, 0.0000000000000000000 ) ) ;
#81 = DIRECTION ( 'NONE',  ( 0.0000000000000000000, 1.000000000000000000, 0.0000000000000000000 ) ) ;
#82 = DIRECTION ( 'NONE',  ( 0.0000000000000000000, -0.0000000000000000000, 1.000000000000000000 ) ) ;
#83 = CARTESIAN_POINT ( 'NONE',  ( 0.0000000000000000000, 0.1250000000000000000, 0.0000000000000000000 ) ) ;
#84 = DIRECTION ( 'NONE',  ( -0.0000000000000000000, -1.000000000000000000, -0.0000000000000000000 ) ) ;
#85 = DIRECTION ( 'NONE',  ( 0.0000000000000000000, 0.0000000000000000000, -1.000000000000000000 ) ) ;
#86 = CARTESIAN_POINT ( 'NONE',  ( 0.0000000000000000000, 0.1250000000000000000, 0.0000000000000000000 ) ) ;
#87 = DIRECTION ( 'NONE',  ( -0.0000000000000000000, -1.000000000000000000, -0.0000000000000000000 ) ) ;
#88 = DIRECTION ( 'NONE',  ( 0.0000000000000000000, 0.0000000000000000000, -1.000000000000000000 ) ) ;
#89 =( LENGTH_UNIT ( ) NAMED_UNIT ( * ) SI_UNIT ( $, .METRE. ) );
#90 =( CONVERSION_BASED_UNIT ( 'INCH', #37 ) LENGTH_UNIT ( ) NAMED_UNIT ( #147 ) );
#91 =( NAMED_UNIT ( * ) PLANE_ANGLE_UNIT ( ) SI_UNIT ( $, .RADIAN. ) );
#92 =( NAMED_UNIT ( * ) SI_UNIT ( $, .STERADIAN. ) SOLID_ANGLE_UNIT ( ) );
#93 = APPLICATION_PROTOCOL_DEFINITION ( 'draft international standard', 'automotive_design', 1998, #28 ) ;
#94 = FILL_AREA_STYLE_COLOUR ( '', #142 ) ;
#95 = FILL_AREA_STYLE ('',( #94 ) ) ;
#96 = SURFACE_STYLE_FILL_AREA ( #95 ) ;
#97 = SURFACE_SIDE_STYLE ('',( #96 ) ) ;
#98 = SURFACE_STYLE_USAGE ( .BOTH. , #97 ) ;
#99 = PRESENTATION_STYLE_ASSIGNMENT (( #98 ) ) ;
#100 =( LENGTH_UNIT ( ) NAMED_UNIT ( * ) SI_UNIT ( $, .METRE. ) );
#101 =( CONVERSION_BASED_UNIT ( 'INCH', #40 ) LENGTH_UNIT ( ) NAMED_UNIT ( #148 ) );
#102 =( NAMED_UNIT ( * ) PLANE_ANGLE_UNIT ( ) SI_UNIT ( $, .RADIAN. ) );
#103 =( NAMED_UNIT ( * ) SI_UNIT ( $, .STERADIAN. ) SOLID_ANGLE_UNIT ( ) );
#104 = CARTESIAN_POINT ( 'NONE',  ( 0.0000000000000000000, 0.0000000000000000000, 0.0000000000000000000 ) ) ;
#105 = DIRECTION ( 'NONE',  ( 0.0000000000000000000, 0.0000000000000000000, 1.000000000000000000 ) ) ;
#106 = DIRECTION ( 'NONE',  ( 1.000000000000000000, 0.0000000000000000000, 0.0000000000000000000 ) ) ;
#107 = SHAPE_DEFINITION_REPRESENTATION ( #24, #112 ) ;
#108 = PRODUCT_CONTEXT ( 'NONE', #28, 'mechanical' ) ;
#109 = APPLICATION_PROTOCOL_DEFINITION ( 'draft international standard', 'automotive_design', 1998, #29 ) ;
#110 = UNCERTAINTY_MEASURE_WITH_UNIT (LENGTH_MEASURE( 1.000000000000000100E-005 ), #50, 'distance_accuracy_value', 'NONE');
#111 = UNCERTAINTY_MEASURE_WITH_UNIT (LENGTH_MEASURE( 1.000000000000000100E-005 ), #101, 'distance_accuracy_value', 'NONE');
#112 = ADVANCED_BREP_SHAPE_REPRESENTATION ( 'D125A1', ( #23, #41 ), #2 ) ;
#113 = UNCERTAINTY_MEASURE_WITH_UNIT (LENGTH_MEASURE( 1.000000000000000100E-005 ), #90, 'distance_accuracy_value', 'NONE');
#114 = SURFACE_STYLE_USAGE ( .BOTH. , #26 ) ;
#115 = VERTEX_POINT ( 'NONE', #53 ) ;
#116 = FILL_AREA_STYLE ('',( #118 ) ) ;
#117 = VERTEX_POINT ( 'NONE', #54 ) ;
#118 = FILL_AREA_STYLE_COLOUR ( '', #143 ) ;
#119 = VERTEX_POINT ( 'NONE', #55 ) ;
#120 = VERTEX_POINT ( 'NONE', #56 ) ;
#121 = EDGE_LOOP ( 'NONE', ( #8, #6, #7, #5 ) ) ;
#122 = EDGE_LOOP ( 'NONE', ( #12, #10, #11, #9 ) ) ;
#123 = EDGE_LOOP ( 'NONE', ( #4, #127 ) ) ;
#124 = EDGE_LOOP ( 'NONE', ( #126, #125 ) ) ;
#125 = ORIENTED_EDGE ( 'NONE', *, *, #131, .F. ) ;
#126 = ORIENTED_EDGE ( 'NONE', *, *, #134, .F. ) ;
#127 = ORIENTED_EDGE ( 'NONE', *, *, #130, .T. ) ;
#128 = CIRCLE ( 'NONE', #22, 0.07812500000000013900 ) ;
#129 = EDGE_CURVE ( 'NONE', #119, #117, #57, .T. ) ;
#130 = EDGE_CURVE ( 'NONE', #119, #120, #128, .T. ) ;
#131 = EDGE_CURVE ( 'NONE', #117, #115, #141, .T. ) ;
#132 = EDGE_CURVE ( 'NONE', #120, #115, #67, .T. ) ;
#133 = EDGE_CURVE ( 'NONE', #120, #119, #140, .T. ) ;
#134 = EDGE_CURVE ( 'NONE', #115, #117, #139, .T. ) ;
#135 = ADVANCED_FACE ( 'NONE', ( #14 ), #75, .F. ) ;
#136 = ADVANCED_FACE ( 'NONE', ( #35 ), #79, .T. ) ;
#137 = ADVANCED_FACE ( 'NONE', ( #44 ), #42, .T. ) ;
#138 = ADVANCED_FACE ( 'NONE', ( #43 ), #31, .T. ) ;
#139 = CIRCLE ( 'NONE', #15, 0.07812500000000013900 ) ;
#140 = CIRCLE ( 'NONE', #47, 0.07812500000000013900 ) ;
#141 = CIRCLE ( 'NONE', #21, 0.07812500000000013900 ) ;
#142 = COLOUR_RGB ( '',0.5686274509803921400, 0.5686274509803921400, 0.5882352941176470800 ) ;
#143 = COLOUR_RGB ( '',0.5686274509803921400, 0.5686274509803921400, 0.5882352941176470800 ) ;
#144 = PRODUCT_DEFINITION ( 'UNKNOWN', '', #38, #25 ) ;
#145 = PRODUCT_RELATED_PRODUCT_CATEGORY ( 'part', '', ( #149 ) ) ;
#146 = DIMENSIONAL_EXPONENTS ( 1.000000000000000000, 0.0000000000000000000, 0.0000000000000000000, 0.0000000000000000000, 0.0000000000000000000, 0.0000000000000000000, 0.0000000000000000000 ) ;
#147 = DIMENSIONAL_EXPONENTS ( 1.000000000000000000, 0.0000000000000000000, 0.0000000000000000000, 0.0000000000000000000, 0.0000000000000000000, 0.0000000000000000000, 0.0000000000000000000 ) ;
#148 = DIMENSIONAL_EXPONENTS ( 1.000000000000000000, 0.0000000000000000000, 0.0000000000000000000, 0.0000000000000000000, 0.0000000000000000000, 0.0000000000000000000, 0.0000000000000000000 ) ;
#149 = PRODUCT ( 'D125A1', 'D125A1', '', ( #108 ) ) ;
ENDSEC;
END-ISO-10303-21;
