ISO-10303-21;
HEADER;
FILE_DESCRIPTION (( 'STEP AP214' ),
    '1' );
FILE_NAME ('D125A2-DM.step',
    '2012-04-20T20:53:09',
    ( '' ),
    ( '' ),
    'SwSTEP 2.0',
    'SolidWorks 2012',
    '' );
FILE_SCHEMA (( 'AUTOMOTIVE_DESIGN' ));
ENDSEC;

DATA;
#1 = VERTEX_POINT ( 'NONE', #139 ) ;
#2 = VERTEX_POINT ( 'NONE', #138 ) ;
#3 = ORIENTED_EDGE ( 'NONE', *, *, #80, .T. ) ;
#4 = ORIENTED_EDGE ( 'NONE', *, *, #81, .T. ) ;
#5 = EDGE_LOOP ( 'NONE', ( #9, #3, #4, #135 ) ) ;
#6 = EDGE_LOOP ( 'NONE', ( #133, #128, #129, #130 ) ) ;
#7 = EDGE_LOOP ( 'NONE', ( #131, #142 ) ) ;
#8 = EDGE_LOOP ( 'NONE', ( #141, #140 ) ) ;
#9 = ORIENTED_EDGE ( 'NONE', *, *, #70, .F. ) ;
#10 = DIRECTION ( 'NONE',  ( 0.0000000000000000000, -0.0000000000000000000, 1.000000000000000000 ) ) ;
#11 = CARTESIAN_POINT ( 'NONE',  ( 0.0000000000000000000, 0.1250000000000000000, 0.0000000000000000000 ) ) ;
#12 = DIRECTION ( 'NONE',  ( 0.0000000000000000000, 1.000000000000000000, 0.0000000000000000000 ) ) ;
#13 = DIRECTION ( 'NONE',  ( 0.0000000000000000000, 0.0000000000000000000, 1.000000000000000000 ) ) ;
#14 = CARTESIAN_POINT ( 'NONE',  ( 0.0000000000000000000, 0.1250000000000000000, 0.0000000000000000000 ) ) ;
#15 = DIRECTION ( 'NONE',  ( -0.0000000000000000000, -1.000000000000000000, -0.0000000000000000000 ) ) ;
#16 = DIRECTION ( 'NONE',  ( 0.0000000000000000000, 0.0000000000000000000, -1.000000000000000000 ) ) ;
#17 = CARTESIAN_POINT ( 'NONE',  ( 0.0000000000000000000, 0.1250000000000000000, 0.0000000000000000000 ) ) ;
#18 = DIRECTION ( 'NONE',  ( -0.0000000000000000000, -1.000000000000000000, -0.0000000000000000000 ) ) ;
#19 = DIRECTION ( 'NONE',  ( 0.0000000000000000000, 0.0000000000000000000, -1.000000000000000000 ) ) ;
#20 = PLANE ( 'NONE',  #96 ) ;
#21 = CARTESIAN_POINT ( 'NONE',  ( 0.0000000000000000000, 0.1250000000000000000, 0.0000000000000000000 ) ) ;
#22 = DIRECTION ( 'NONE',  ( 0.0000000000000000000, 1.000000000000000000, 0.0000000000000000000 ) ) ;
#23 = DIRECTION ( 'NONE',  ( 0.0000000000000000000, -0.0000000000000000000, 1.000000000000000000 ) ) ;
#24 = LINE ( 'NONE', #25, #118 ) ;
#25 = CARTESIAN_POINT ( 'NONE',  ( 1.148106374200643900E-017, 0.1250000000000000000, 0.09375000000000001400 ) ) ;
#26 = DIRECTION ( 'NONE',  ( -0.0000000000000000000, -1.000000000000000000, -0.0000000000000000000 ) ) ;
#27 = CARTESIAN_POINT ( 'NONE',  ( 0.0000000000000000000, 0.0000000000000000000, 0.0000000000000000000 ) ) ;
#28 = DIRECTION ( 'NONE',  ( 0.0000000000000000000, 1.000000000000000000, 0.0000000000000000000 ) ) ;
#29 = DIRECTION ( 'NONE',  ( 0.0000000000000000000, 0.0000000000000000000, 1.000000000000000000 ) ) ;
#30 = CARTESIAN_POINT ( 'NONE',  ( 0.0000000000000000000, 0.0000000000000000000, 0.0000000000000000000 ) ) ;
#31 = DIRECTION ( 'NONE',  ( 0.0000000000000000000, 1.000000000000000000, 0.0000000000000000000 ) ) ;
#32 = DIRECTION ( 'NONE',  ( 0.0000000000000000000, 0.0000000000000000000, 1.000000000000000000 ) ) ;
#33 = CARTESIAN_POINT ( 'NONE',  ( 1.148106374200643900E-017, 0.1250000000000000000, 0.09375000000000001400 ) ) ;
#34 = LINE ( 'NONE', #35, #112 ) ;
#35 = CARTESIAN_POINT ( 'NONE',  ( 0.0000000000000000000, 0.1250000000000000000, -0.09375000000000001400 ) ) ;
#36 = DIRECTION ( 'NONE',  ( -0.0000000000000000000, -1.000000000000000000, -0.0000000000000000000 ) ) ;
#37 = FILL_AREA_STYLE_COLOUR ( '', #86 ) ;
#38 = FILL_AREA_STYLE ('',( #37 ) ) ;
#39 = SURFACE_STYLE_FILL_AREA ( #38 ) ;
#40 = SURFACE_SIDE_STYLE ('',( #39 ) ) ;
#41 = SURFACE_STYLE_USAGE ( .BOTH. , #40 ) ;
#42 = PRESENTATION_STYLE_ASSIGNMENT (( #41 ) ) ;
#43 =( LENGTH_UNIT ( ) NAMED_UNIT ( * ) SI_UNIT ( $, .METRE. ) );
#44 =( CONVERSION_BASED_UNIT ( 'INCH', #110 ) LENGTH_UNIT ( ) NAMED_UNIT ( #147 ) );
#45 =( NAMED_UNIT ( * ) PLANE_ANGLE_UNIT ( ) SI_UNIT ( $, .RADIAN. ) );
#46 =( NAMED_UNIT ( * ) SI_UNIT ( $, .STERADIAN. ) SOLID_ANGLE_UNIT ( ) );
#47 = CARTESIAN_POINT ( 'NONE',  ( 0.0000000000000000000, 0.0000000000000000000, -0.09375000000000001400 ) ) ;
#48 =( LENGTH_UNIT ( ) NAMED_UNIT ( * ) SI_UNIT ( $, .METRE. ) );
#49 =( CONVERSION_BASED_UNIT ( 'INCH', #115 ) LENGTH_UNIT ( ) NAMED_UNIT ( #148 ) );
#50 =( NAMED_UNIT ( * ) PLANE_ANGLE_UNIT ( ) SI_UNIT ( $, .RADIAN. ) );
#51 =( NAMED_UNIT ( * ) SI_UNIT ( $, .STERADIAN. ) SOLID_ANGLE_UNIT ( ) );
#52 = APPLICATION_PROTOCOL_DEFINITION ( 'draft international standard', 'automotive_design', 1998, #126 ) ;
#53 = FILL_AREA_STYLE_COLOUR ( '', #74 ) ;
#54 = FILL_AREA_STYLE ('',( #53 ) ) ;
#55 = SURFACE_STYLE_FILL_AREA ( #54 ) ;
#56 = SURFACE_SIDE_STYLE ('',( #55 ) ) ;
#57 = SURFACE_STYLE_USAGE ( .BOTH. , #56 ) ;
#58 = PRESENTATION_STYLE_ASSIGNMENT (( #57 ) ) ;
#59 =( LENGTH_UNIT ( ) NAMED_UNIT ( * ) SI_UNIT ( $, .METRE. ) );
#60 =( CONVERSION_BASED_UNIT ( 'INCH', #117 ) LENGTH_UNIT ( ) NAMED_UNIT ( #146 ) );
#61 =( NAMED_UNIT ( * ) PLANE_ANGLE_UNIT ( ) SI_UNIT ( $, .RADIAN. ) );
#62 =( NAMED_UNIT ( * ) SI_UNIT ( $, .STERADIAN. ) SOLID_ANGLE_UNIT ( ) );
#63 = CARTESIAN_POINT ( 'NONE',  ( 0.0000000000000000000, 0.0000000000000000000, 0.0000000000000000000 ) ) ;
#64 = DIRECTION ( 'NONE',  ( 0.0000000000000000000, 0.0000000000000000000, 1.000000000000000000 ) ) ;
#65 = DIRECTION ( 'NONE',  ( 1.000000000000000000, 0.0000000000000000000, 0.0000000000000000000 ) ) ;
#66 = SHAPE_DEFINITION_REPRESENTATION ( #104, #120 ) ;
#67 = PRODUCT_CONTEXT ( 'NONE', #126, 'mechanical' ) ;
#68 = APPLICATION_PROTOCOL_DEFINITION ( 'draft international standard', 'automotive_design', 1998, #125 ) ;
#69 = CIRCLE ( 'NONE', #90, 0.09375000000000001400 ) ;
#70 = EDGE_CURVE ( 'NONE', #132, #2, #69, .T. ) ;
#71 = ADVANCED_FACE ( 'NONE', ( #93 ), #105, .F. ) ;
#72 = CIRCLE ( 'NONE', #88, 0.09375000000000001400 ) ;
#73 = CIRCLE ( 'NONE', #99, 0.09375000000000001400 ) ;
#74 = COLOUR_RGB ( '',0.5686274509803921400, 0.5686274509803921400, 0.5882352941176470800 ) ;
#75 = PRODUCT_DEFINITION ( 'UNKNOWN', '', #119, #103 ) ;
#76 = EDGE_CURVE ( 'NONE', #2, #132, #73, .T. ) ;
#77 = ADVANCED_FACE ( 'NONE', ( #98 ), #92, .T. ) ;
#78 = ADVANCED_FACE ( 'NONE', ( #97 ), #94, .T. ) ;
#79 = ADVANCED_FACE ( 'NONE', ( #87 ), #20, .T. ) ;
#80 = EDGE_CURVE ( 'NONE', #132, #1, #24, .T. ) ;
#81 = EDGE_CURVE ( 'NONE', #1, #134, #72, .T. ) ;
#82 = PRODUCT_RELATED_PRODUCT_CATEGORY ( 'part', '', ( #149 ) ) ;
#83 = EDGE_CURVE ( 'NONE', #134, #1, #85, .T. ) ;
#84 = EDGE_CURVE ( 'NONE', #2, #134, #34, .T. ) ;
#85 = CIRCLE ( 'NONE', #91, 0.09375000000000001400 ) ;
#86 = COLOUR_RGB ( '',0.5686274509803921400, 0.5686274509803921400, 0.5882352941176470800 ) ;
#87 = FACE_OUTER_BOUND ( 'NONE', #7, .T. ) ;
#88 = AXIS2_PLACEMENT_3D ( 'NONE', #27, #28, #29 ) ;
#89 = AXIS2_PLACEMENT_3D ( 'NONE', #14, #15, #16 ) ;
#90 = AXIS2_PLACEMENT_3D ( 'NONE', #137, #136, #106 ) ;
#91 = AXIS2_PLACEMENT_3D ( 'NONE', #30, #31, #32 ) ;
#92 = CYLINDRICAL_SURFACE ( 'NONE', #89, 0.09375000000000001400 ) ;
#93 = FACE_OUTER_BOUND ( 'NONE', #8, .T. ) ;
#94 = CYLINDRICAL_SURFACE ( 'NONE', #95, 0.09375000000000001400 ) ;
#95 = AXIS2_PLACEMENT_3D ( 'NONE', #17, #18, #19 ) ;
#96 = AXIS2_PLACEMENT_3D ( 'NONE', #21, #22, #23 ) ;
#97 = FACE_OUTER_BOUND ( 'NONE', #6, .T. ) ;
#98 = FACE_OUTER_BOUND ( 'NONE', #5, .T. ) ;
#99 = AXIS2_PLACEMENT_3D ( 'NONE', #11, #12, #13 ) ;
#100 = AXIS2_PLACEMENT_3D ( 'NONE', #124, #127, #10 ) ;
#101 = CLOSED_SHELL ( 'NONE', ( #77, #78, #79, #71 ) ) ;
#102 = MANIFOLD_SOLID_BREP ( 'Boss-Extrude1', #101 ) ;
#103 = PRODUCT_DEFINITION_CONTEXT ( 'detailed design', #125, 'design' ) ;
#104 = PRODUCT_DEFINITION_SHAPE ( 'NONE', 'NONE',  #75 ) ;
#105 = PLANE ( 'NONE',  #100 ) ;
#106 = DIRECTION ( 'NONE',  ( 0.0000000000000000000, 0.0000000000000000000, 1.000000000000000000 ) ) ;
#107 = MECHANICAL_DESIGN_GEOMETRIC_PRESENTATION_REPRESENTATION (  '', ( #109 ), #145 ) ;
#108 = PRESENTATION_LAYER_ASSIGNMENT (  '', '', ( #109 ) ) ;
#109 = STYLED_ITEM ( 'NONE', ( #58 ), #120 ) ;
#110 = LENGTH_MEASURE_WITH_UNIT ( LENGTH_MEASURE( 0.02539999999999999900 ), #43 );
#111 = MECHANICAL_DESIGN_GEOMETRIC_PRESENTATION_REPRESENTATION (  '', ( #116 ), #143 ) ;
#112 = VECTOR ( 'NONE', #36, 39.37007874015748100 ) ;
#113 = AXIS2_PLACEMENT_3D ( 'NONE', #63, #64, #65 ) ;
#114 = PRESENTATION_LAYER_ASSIGNMENT (  '', '', ( #116 ) ) ;
#115 = LENGTH_MEASURE_WITH_UNIT ( LENGTH_MEASURE( 0.02539999999999999900 ), #48 );
#116 = STYLED_ITEM ( 'NONE', ( #42 ), #102 ) ;
#117 = LENGTH_MEASURE_WITH_UNIT ( LENGTH_MEASURE( 0.02539999999999999900 ), #59 );
#118 = VECTOR ( 'NONE', #26, 39.37007874015748100 ) ;
#119 = PRODUCT_DEFINITION_FORMATION_WITH_SPECIFIED_SOURCE ( 'ANY', '', #149, .NOT_KNOWN. ) ;
#120 = ADVANCED_BREP_SHAPE_REPRESENTATION ( 'D125A2-DM', ( #102, #113 ), #144 ) ;
#121 = UNCERTAINTY_MEASURE_WITH_UNIT (LENGTH_MEASURE( 1.000000000000000100E-005 ), #44, 'distance_accuracy_value', 'NONE');
#122 = UNCERTAINTY_MEASURE_WITH_UNIT (LENGTH_MEASURE( 1.000000000000000100E-005 ), #49, 'distance_accuracy_value', 'NONE');
#123 = UNCERTAINTY_MEASURE_WITH_UNIT (LENGTH_MEASURE( 1.000000000000000100E-005 ), #60, 'distance_accuracy_value', 'NONE');
#124 = CARTESIAN_POINT ( 'NONE',  ( 0.0000000000000000000, 0.0000000000000000000, 0.0000000000000000000 ) ) ;
#125 = APPLICATION_CONTEXT ( 'automotive_design' ) ;
#126 = APPLICATION_CONTEXT ( 'automotive_design' ) ;
#127 = DIRECTION ( 'NONE',  ( 0.0000000000000000000, 1.000000000000000000, 0.0000000000000000000 ) ) ;
#128 = ORIENTED_EDGE ( 'NONE', *, *, #76, .F. ) ;
#129 = ORIENTED_EDGE ( 'NONE', *, *, #84, .T. ) ;
#130 = ORIENTED_EDGE ( 'NONE', *, *, #83, .T. ) ;
#131 = ORIENTED_EDGE ( 'NONE', *, *, #76, .T. ) ;
#132 = VERTEX_POINT ( 'NONE', #33 ) ;
#133 = ORIENTED_EDGE ( 'NONE', *, *, #80, .F. ) ;
#134 = VERTEX_POINT ( 'NONE', #47 ) ;
#135 = ORIENTED_EDGE ( 'NONE', *, *, #84, .F. ) ;
#136 = DIRECTION ( 'NONE',  ( 0.0000000000000000000, 1.000000000000000000, 0.0000000000000000000 ) ) ;
#137 = CARTESIAN_POINT ( 'NONE',  ( 0.0000000000000000000, 0.1250000000000000000, 0.0000000000000000000 ) ) ;
#138 = CARTESIAN_POINT ( 'NONE',  ( 0.0000000000000000000, 0.1250000000000000000, -0.09375000000000001400 ) ) ;
#139 = CARTESIAN_POINT ( 'NONE',  ( 1.148106374200643900E-017, 0.0000000000000000000, 0.09375000000000001400 ) ) ;
#140 = ORIENTED_EDGE ( 'NONE', *, *, #81, .F. ) ;
#141 = ORIENTED_EDGE ( 'NONE', *, *, #83, .F. ) ;
#142 = ORIENTED_EDGE ( 'NONE', *, *, #70, .T. ) ;
#143 =( GEOMETRIC_REPRESENTATION_CONTEXT ( 3 ) GLOBAL_UNCERTAINTY_ASSIGNED_CONTEXT ( ( #121 ) ) GLOBAL_UNIT_ASSIGNED_CONTEXT ( ( #44, #45, #46 ) ) REPRESENTATION_CONTEXT ( 'NONE', 'WORKASPACE' ) );
#144 =( GEOMETRIC_REPRESENTATION_CONTEXT ( 3 ) GLOBAL_UNCERTAINTY_ASSIGNED_CONTEXT ( ( #122 ) ) GLOBAL_UNIT_ASSIGNED_CONTEXT ( ( #49, #50, #51 ) ) REPRESENTATION_CONTEXT ( 'NONE', 'WORKASPACE' ) );
#145 =( GEOMETRIC_REPRESENTATION_CONTEXT ( 3 ) GLOBAL_UNCERTAINTY_ASSIGNED_CONTEXT ( ( #123 ) ) GLOBAL_UNIT_ASSIGNED_CONTEXT ( ( #60, #61, #62 ) ) REPRESENTATION_CONTEXT ( 'NONE', 'WORKASPACE' ) );
#146 = DIMENSIONAL_EXPONENTS ( 1.000000000000000000, 0.0000000000000000000, 0.0000000000000000000, 0.0000000000000000000, 0.0000000000000000000, 0.0000000000000000000, 0.0000000000000000000 ) ;
#147 = DIMENSIONAL_EXPONENTS ( 1.000000000000000000, 0.0000000000000000000, 0.0000000000000000000, 0.0000000000000000000, 0.0000000000000000000, 0.0000000000000000000, 0.0000000000000000000 ) ;
#148 = DIMENSIONAL_EXPONENTS ( 1.000000000000000000, 0.0000000000000000000, 0.0000000000000000000, 0.0000000000000000000, 0.0000000000000000000, 0.0000000000000000000, 0.0000000000000000000 ) ;
#149 = PRODUCT ( 'D125A2-DM', 'D125A2-DM', '', ( #67 ) ) ;
ENDSEC;
END-ISO-10303-21;
