ISO-10303-21;
HEADER;
FILE_DESCRIPTION (( 'STEP AP214' ),
    '1' );
FILE_NAME ('D125B.step',
    '2012-04-20T20:53:20',
    ( '' ),
    ( '' ),
    'SwSTEP 2.0',
    'SolidWorks 2012',
    '' );
FILE_SCHEMA (( 'AUTOMOTIVE_DESIGN' ));
ENDSEC;

DATA;
#1 = VERTEX_POINT ( 'NONE', #50 ) ;
#2 = EDGE_LOOP ( 'NONE', ( #124, #119 ) ) ;
#3 = EDGE_LOOP ( 'NONE', ( #126, #29, #30, #123 ) ) ;
#4 = VERTEX_POINT ( 'NONE', #51 ) ;
#5 = EDGE_LOOP ( 'NONE', ( #48, #49 ) ) ;
#6 = EDGE_LOOP ( 'NONE', ( #129, #125, #128, #127 ) ) ;
#7 = EDGE_CURVE ( 'NONE', #1, #130, #145, .T. ) ;
#8 = PRODUCT_RELATED_PRODUCT_CATEGORY ( 'part', '', ( #149 ) ) ;
#9 = PRODUCT_DEFINITION ( 'UNKNOWN', '', #31, #26 ) ;
#10 = CIRCLE ( 'NONE', #32, 0.1250000000000000000 ) ;
#11 = CIRCLE ( 'NONE', #15, 0.1250000000000000000 ) ;
#12 = COLOUR_RGB ( '',0.5686274509803921400, 0.5686274509803921400, 0.5882352941176470800 ) ;
#13 = CIRCLE ( 'NONE', #19, 0.1250000000000000000 ) ;
#14 = COLOUR_RGB ( '',0.5686274509803921400, 0.5686274509803921400, 0.5882352941176470800 ) ;
#15 = AXIS2_PLACEMENT_3D ( 'NONE', #67, #68, #69 ) ;
#16 = LENGTH_MEASURE_WITH_UNIT ( LENGTH_MEASURE( 0.02539999999999999900 ), #62 );
#17 = CLOSED_SHELL ( 'NONE', ( #144, #141, #142, #143 ) ) ;
#18 = FACE_OUTER_BOUND ( 'NONE', #3, .T. ) ;
#19 = AXIS2_PLACEMENT_3D ( 'NONE', #70, #74, #75 ) ;
#20 = FACE_OUTER_BOUND ( 'NONE', #2, .T. ) ;
#21 = STYLED_ITEM ( 'NONE', ( #61 ), #28 ) ;
#22 = VECTOR ( 'NONE', #73, 39.37007874015748100 ) ;
#23 = MECHANICAL_DESIGN_GEOMETRIC_PRESENTATION_REPRESENTATION (  '', ( #21 ), #120 ) ;
#24 = PRESENTATION_LAYER_ASSIGNMENT (  '', '', ( #21 ) ) ;
#25 = AXIS2_PLACEMENT_3D ( 'NONE', #52, #53, #54 ) ;
#26 = PRODUCT_DEFINITION_CONTEXT ( 'detailed design', #118, 'design' ) ;
#27 = PRODUCT_DEFINITION_SHAPE ( 'NONE', 'NONE',  #9 ) ;
#28 = MANIFOLD_SOLID_BREP ( 'Boss-Extrude1', #17 ) ;
#29 = ORIENTED_EDGE ( 'NONE', *, *, #136, .F. ) ;
#30 = ORIENTED_EDGE ( 'NONE', *, *, #137, .T. ) ;
#31 = PRODUCT_DEFINITION_FORMATION_WITH_SPECIFIED_SOURCE ( 'ANY', '', #149, .NOT_KNOWN. ) ;
#32 = AXIS2_PLACEMENT_3D ( 'NONE', #76, #77, #78 ) ;
#33 = AXIS2_PLACEMENT_3D ( 'NONE', #111, #112, #113 ) ;
#34 = LENGTH_MEASURE_WITH_UNIT ( LENGTH_MEASURE( 0.02539999999999999900 ), #107 );
#35 = MECHANICAL_DESIGN_GEOMETRIC_PRESENTATION_REPRESENTATION (  '', ( #37 ), #122 ) ;
#36 = PRESENTATION_LAYER_ASSIGNMENT (  '', '', ( #37 ) ) ;
#37 = STYLED_ITEM ( 'NONE', ( #106 ), #134 ) ;
#38 = LENGTH_MEASURE_WITH_UNIT ( LENGTH_MEASURE( 0.02539999999999999900 ), #96 );
#39 = CYLINDRICAL_SURFACE ( 'NONE', #43, 0.1250000000000000000 ) ;
#40 = FACE_OUTER_BOUND ( 'NONE', #6, .T. ) ;
#41 = AXIS2_PLACEMENT_3D ( 'NONE', #90, #91, #92 ) ;
#42 = AXIS2_PLACEMENT_3D ( 'NONE', #86, #87, #88 ) ;
#43 = AXIS2_PLACEMENT_3D ( 'NONE', #93, #94, #95 ) ;
#44 = FACE_OUTER_BOUND ( 'NONE', #5, .T. ) ;
#45 = CYLINDRICAL_SURFACE ( 'NONE', #47, 0.1250000000000000000 ) ;
#46 = VECTOR ( 'NONE', #82, 39.37007874015748100 ) ;
#47 = AXIS2_PLACEMENT_3D ( 'NONE', #79, #83, #84 ) ;
#48 = ORIENTED_EDGE ( 'NONE', *, *, #7, .F. ) ;
#49 = ORIENTED_EDGE ( 'NONE', *, *, #138, .F. ) ;
#50 = CARTESIAN_POINT ( 'NONE',  ( 0.0000000000000000000, 0.0000000000000000000, -0.1250000000000000000 ) ) ;
#51 = CARTESIAN_POINT ( 'NONE',  ( 0.0000000000000000000, 0.1250000000000000000, -0.1250000000000000000 ) ) ;
#52 = CARTESIAN_POINT ( 'NONE',  ( 0.0000000000000000000, 0.0000000000000000000, 0.0000000000000000000 ) ) ;
#53 = DIRECTION ( 'NONE',  ( 0.0000000000000000000, 1.000000000000000000, 0.0000000000000000000 ) ) ;
#54 = DIRECTION ( 'NONE',  ( 0.0000000000000000000, 0.0000000000000000000, 1.000000000000000000 ) ) ;
#55 = CARTESIAN_POINT ( 'NONE',  ( 1.530808498934191500E-017, 0.0000000000000000000, 0.1250000000000000000 ) ) ;
#56 = FILL_AREA_STYLE_COLOUR ( '', #12 ) ;
#57 = FILL_AREA_STYLE ('',( #56 ) ) ;
#58 = SURFACE_STYLE_FILL_AREA ( #57 ) ;
#59 = SURFACE_SIDE_STYLE ('',( #58 ) ) ;
#60 = SURFACE_STYLE_USAGE ( .BOTH. , #59 ) ;
#61 = PRESENTATION_STYLE_ASSIGNMENT (( #60 ) ) ;
#62 =( LENGTH_UNIT ( ) NAMED_UNIT ( * ) SI_UNIT ( $, .METRE. ) );
#63 =( CONVERSION_BASED_UNIT ( 'INCH', #16 ) LENGTH_UNIT ( ) NAMED_UNIT ( #146 ) );
#64 =( NAMED_UNIT ( * ) PLANE_ANGLE_UNIT ( ) SI_UNIT ( $, .RADIAN. ) );
#65 =( NAMED_UNIT ( * ) SI_UNIT ( $, .STERADIAN. ) SOLID_ANGLE_UNIT ( ) );
#66 = CARTESIAN_POINT ( 'NONE',  ( 1.530808498934191500E-017, 0.1250000000000000000, 0.1250000000000000000 ) ) ;
#67 = CARTESIAN_POINT ( 'NONE',  ( 0.0000000000000000000, 0.1250000000000000000, 0.0000000000000000000 ) ) ;
#68 = DIRECTION ( 'NONE',  ( 0.0000000000000000000, 1.000000000000000000, 0.0000000000000000000 ) ) ;
#69 = DIRECTION ( 'NONE',  ( 0.0000000000000000000, 0.0000000000000000000, 1.000000000000000000 ) ) ;
#70 = CARTESIAN_POINT ( 'NONE',  ( 0.0000000000000000000, 0.0000000000000000000, 0.0000000000000000000 ) ) ;
#71 = LINE ( 'NONE', #72, #22 ) ;
#72 = CARTESIAN_POINT ( 'NONE',  ( 0.0000000000000000000, 0.1250000000000000000, -0.1250000000000000000 ) ) ;
#73 = DIRECTION ( 'NONE',  ( -0.0000000000000000000, -1.000000000000000000, -0.0000000000000000000 ) ) ;
#74 = DIRECTION ( 'NONE',  ( 0.0000000000000000000, 1.000000000000000000, 0.0000000000000000000 ) ) ;
#75 = DIRECTION ( 'NONE',  ( 0.0000000000000000000, 0.0000000000000000000, 1.000000000000000000 ) ) ;
#76 = CARTESIAN_POINT ( 'NONE',  ( 0.0000000000000000000, 0.1250000000000000000, 0.0000000000000000000 ) ) ;
#77 = DIRECTION ( 'NONE',  ( 0.0000000000000000000, 1.000000000000000000, 0.0000000000000000000 ) ) ;
#78 = DIRECTION ( 'NONE',  ( 0.0000000000000000000, 0.0000000000000000000, 1.000000000000000000 ) ) ;
#79 = CARTESIAN_POINT ( 'NONE',  ( 0.0000000000000000000, 0.1250000000000000000, 0.0000000000000000000 ) ) ;
#80 = LINE ( 'NONE', #81, #46 ) ;
#81 = CARTESIAN_POINT ( 'NONE',  ( 1.530808498934191500E-017, 0.1250000000000000000, 0.1250000000000000000 ) ) ;
#82 = DIRECTION ( 'NONE',  ( -0.0000000000000000000, -1.000000000000000000, -0.0000000000000000000 ) ) ;
#83 = DIRECTION ( 'NONE',  ( -0.0000000000000000000, -1.000000000000000000, -0.0000000000000000000 ) ) ;
#84 = DIRECTION ( 'NONE',  ( 0.0000000000000000000, 0.0000000000000000000, -1.000000000000000000 ) ) ;
#85 = PLANE ( 'NONE',  #42 ) ;
#86 = CARTESIAN_POINT ( 'NONE',  ( 0.0000000000000000000, 0.1250000000000000000, 0.0000000000000000000 ) ) ;
#87 = DIRECTION ( 'NONE',  ( 0.0000000000000000000, 1.000000000000000000, 0.0000000000000000000 ) ) ;
#88 = DIRECTION ( 'NONE',  ( 0.0000000000000000000, -0.0000000000000000000, 1.000000000000000000 ) ) ;
#89 = PLANE ( 'NONE',  #41 ) ;
#90 = CARTESIAN_POINT ( 'NONE',  ( 0.0000000000000000000, 0.0000000000000000000, 0.0000000000000000000 ) ) ;
#91 = DIRECTION ( 'NONE',  ( 0.0000000000000000000, 1.000000000000000000, 0.0000000000000000000 ) ) ;
#92 = DIRECTION ( 'NONE',  ( 0.0000000000000000000, -0.0000000000000000000, 1.000000000000000000 ) ) ;
#93 = CARTESIAN_POINT ( 'NONE',  ( 0.0000000000000000000, 0.1250000000000000000, 0.0000000000000000000 ) ) ;
#94 = DIRECTION ( 'NONE',  ( -0.0000000000000000000, -1.000000000000000000, -0.0000000000000000000 ) ) ;
#95 = DIRECTION ( 'NONE',  ( 0.0000000000000000000, 0.0000000000000000000, -1.000000000000000000 ) ) ;
#96 =( LENGTH_UNIT ( ) NAMED_UNIT ( * ) SI_UNIT ( $, .METRE. ) );
#97 =( CONVERSION_BASED_UNIT ( 'INCH', #38 ) LENGTH_UNIT ( ) NAMED_UNIT ( #147 ) );
#98 =( NAMED_UNIT ( * ) PLANE_ANGLE_UNIT ( ) SI_UNIT ( $, .RADIAN. ) );
#99 =( NAMED_UNIT ( * ) SI_UNIT ( $, .STERADIAN. ) SOLID_ANGLE_UNIT ( ) );
#100 = APPLICATION_PROTOCOL_DEFINITION ( 'draft international standard', 'automotive_design', 1998, #117 ) ;
#101 = FILL_AREA_STYLE_COLOUR ( '', #14 ) ;
#102 = FILL_AREA_STYLE ('',( #101 ) ) ;
#103 = SURFACE_STYLE_FILL_AREA ( #102 ) ;
#104 = SURFACE_SIDE_STYLE ('',( #103 ) ) ;
#105 = SURFACE_STYLE_USAGE ( .BOTH. , #104 ) ;
#106 = PRESENTATION_STYLE_ASSIGNMENT (( #105 ) ) ;
#107 =( LENGTH_UNIT ( ) NAMED_UNIT ( * ) SI_UNIT ( $, .METRE. ) );
#108 =( CONVERSION_BASED_UNIT ( 'INCH', #34 ) LENGTH_UNIT ( ) NAMED_UNIT ( #148 ) );
#109 =( NAMED_UNIT ( * ) PLANE_ANGLE_UNIT ( ) SI_UNIT ( $, .RADIAN. ) );
#110 =( NAMED_UNIT ( * ) SI_UNIT ( $, .STERADIAN. ) SOLID_ANGLE_UNIT ( ) );
#111 = CARTESIAN_POINT ( 'NONE',  ( 0.0000000000000000000, 0.0000000000000000000, 0.0000000000000000000 ) ) ;
#112 = DIRECTION ( 'NONE',  ( 0.0000000000000000000, 0.0000000000000000000, 1.000000000000000000 ) ) ;
#113 = DIRECTION ( 'NONE',  ( 1.000000000000000000, 0.0000000000000000000, 0.0000000000000000000 ) ) ;
#114 = SHAPE_DEFINITION_REPRESENTATION ( #27, #134 ) ;
#115 = PRODUCT_CONTEXT ( 'NONE', #117, 'mechanical' ) ;
#116 = APPLICATION_PROTOCOL_DEFINITION ( 'draft international standard', 'automotive_design', 1998, #118 ) ;
#117 = APPLICATION_CONTEXT ( 'automotive_design' ) ;
#118 = APPLICATION_CONTEXT ( 'automotive_design' ) ;
#119 = ORIENTED_EDGE ( 'NONE', *, *, #139, .T. ) ;
#120 =( GEOMETRIC_REPRESENTATION_CONTEXT ( 3 ) GLOBAL_UNCERTAINTY_ASSIGNED_CONTEXT ( ( #132 ) ) GLOBAL_UNIT_ASSIGNED_CONTEXT ( ( #63, #64, #65 ) ) REPRESENTATION_CONTEXT ( 'NONE', 'WORKASPACE' ) );
#121 =( GEOMETRIC_REPRESENTATION_CONTEXT ( 3 ) GLOBAL_UNCERTAINTY_ASSIGNED_CONTEXT ( ( #133 ) ) GLOBAL_UNIT_ASSIGNED_CONTEXT ( ( #97, #98, #99 ) ) REPRESENTATION_CONTEXT ( 'NONE', 'WORKASPACE' ) );
#122 =( GEOMETRIC_REPRESENTATION_CONTEXT ( 3 ) GLOBAL_UNCERTAINTY_ASSIGNED_CONTEXT ( ( #135 ) ) GLOBAL_UNIT_ASSIGNED_CONTEXT ( ( #108, #109, #110 ) ) REPRESENTATION_CONTEXT ( 'NONE', 'WORKASPACE' ) );
#123 = ORIENTED_EDGE ( 'NONE', *, *, #7, .T. ) ;
#124 = ORIENTED_EDGE ( 'NONE', *, *, #136, .T. ) ;
#125 = ORIENTED_EDGE ( 'NONE', *, *, #140, .T. ) ;
#126 = ORIENTED_EDGE ( 'NONE', *, *, #140, .F. ) ;
#127 = ORIENTED_EDGE ( 'NONE', *, *, #137, .F. ) ;
#128 = ORIENTED_EDGE ( 'NONE', *, *, #138, .T. ) ;
#129 = ORIENTED_EDGE ( 'NONE', *, *, #139, .F. ) ;
#130 = VERTEX_POINT ( 'NONE', #55 ) ;
#131 = VERTEX_POINT ( 'NONE', #66 ) ;
#132 = UNCERTAINTY_MEASURE_WITH_UNIT (LENGTH_MEASURE( 1.000000000000000100E-005 ), #63, 'distance_accuracy_value', 'NONE');
#133 = UNCERTAINTY_MEASURE_WITH_UNIT (LENGTH_MEASURE( 1.000000000000000100E-005 ), #97, 'distance_accuracy_value', 'NONE');
#134 = ADVANCED_BREP_SHAPE_REPRESENTATION ( 'D125B', ( #28, #33 ), #121 ) ;
#135 = UNCERTAINTY_MEASURE_WITH_UNIT (LENGTH_MEASURE( 1.000000000000000100E-005 ), #108, 'distance_accuracy_value', 'NONE');
#136 = EDGE_CURVE ( 'NONE', #4, #131, #11, .T. ) ;
#137 = EDGE_CURVE ( 'NONE', #4, #1, #71, .T. ) ;
#138 = EDGE_CURVE ( 'NONE', #130, #1, #13, .T. ) ;
#139 = EDGE_CURVE ( 'NONE', #131, #4, #10, .T. ) ;
#140 = EDGE_CURVE ( 'NONE', #131, #130, #80, .T. ) ;
#141 = ADVANCED_FACE ( 'NONE', ( #18 ), #45, .T. ) ;
#142 = ADVANCED_FACE ( 'NONE', ( #20 ), #85, .T. ) ;
#143 = ADVANCED_FACE ( 'NONE', ( #44 ), #89, .F. ) ;
#144 = ADVANCED_FACE ( 'NONE', ( #40 ), #39, .T. ) ;
#145 = CIRCLE ( 'NONE', #25, 0.1250000000000000000 ) ;
#146 = DIMENSIONAL_EXPONENTS ( 1.000000000000000000, 0.0000000000000000000, 0.0000000000000000000, 0.0000000000000000000, 0.0000000000000000000, 0.0000000000000000000, 0.0000000000000000000 ) ;
#147 = DIMENSIONAL_EXPONENTS ( 1.000000000000000000, 0.0000000000000000000, 0.0000000000000000000, 0.0000000000000000000, 0.0000000000000000000, 0.0000000000000000000, 0.0000000000000000000 ) ;
#148 = DIMENSIONAL_EXPONENTS ( 1.000000000000000000, 0.0000000000000000000, 0.0000000000000000000, 0.0000000000000000000, 0.0000000000000000000, 0.0000000000000000000, 0.0000000000000000000 ) ;
#149 = PRODUCT ( 'D125B', 'D125B', '', ( #115 ) ) ;
ENDSEC;
END-ISO-10303-21;
