ISO-10303-21;
HEADER;
FILE_DESCRIPTION (( 'STEP AP214' ),
    '1' );
FILE_NAME ('D125BN45.step',
    '2012-04-20T20:53:26',
    ( '' ),
    ( '' ),
    'SwSTEP 2.0',
    'SolidWorks 2012',
    '' );
FILE_SCHEMA (( 'AUTOMOTIVE_DESIGN' ));
ENDSEC;

DATA;
#1 = ORIENTED_EDGE ( 'NONE', *, *, #85, .T. ) ;
#2 = ORIENTED_EDGE ( 'NONE', *, *, #92, .T. ) ;
#3 = ORIENTED_EDGE ( 'NONE', *, *, #96, .F. ) ;
#4 = ORIENTED_EDGE ( 'NONE', *, *, #84, .F. ) ;
#5 = PLANE ( 'NONE',  #101 ) ;
#6 = CARTESIAN_POINT ( 'NONE',  ( 0.0000000000000000000, 0.0000000000000000000, 0.0000000000000000000 ) ) ;
#7 = DIRECTION ( 'NONE',  ( 0.0000000000000000000, 1.000000000000000000, 0.0000000000000000000 ) ) ;
#8 = DIRECTION ( 'NONE',  ( 0.0000000000000000000, -0.0000000000000000000, 1.000000000000000000 ) ) ;
#9 = LINE ( 'NONE', #10, #108 ) ;
#10 = CARTESIAN_POINT ( 'NONE',  ( 0.0000000000000000000, 0.1250000000000000000, -0.1250000000000000000 ) ) ;
#11 = DIRECTION ( 'NONE',  ( -0.0000000000000000000, -1.000000000000000000, -0.0000000000000000000 ) ) ;
#12 = CARTESIAN_POINT ( 'NONE',  ( 0.0000000000000000000, 0.0000000000000000000, 0.0000000000000000000 ) ) ;
#13 = DIRECTION ( 'NONE',  ( 0.0000000000000000000, 1.000000000000000000, 0.0000000000000000000 ) ) ;
#14 = DIRECTION ( 'NONE',  ( 0.0000000000000000000, 0.0000000000000000000, 1.000000000000000000 ) ) ;
#15 = CARTESIAN_POINT ( 'NONE',  ( 0.0000000000000000000, 0.1250000000000000000, 0.0000000000000000000 ) ) ;
#16 = DIRECTION ( 'NONE',  ( 0.0000000000000000000, 1.000000000000000000, 0.0000000000000000000 ) ) ;
#17 = DIRECTION ( 'NONE',  ( 0.0000000000000000000, 0.0000000000000000000, 1.000000000000000000 ) ) ;
#18 = CARTESIAN_POINT ( 'NONE',  ( 0.0000000000000000000, 0.1250000000000000000, 0.0000000000000000000 ) ) ;
#19 = DIRECTION ( 'NONE',  ( -0.0000000000000000000, -1.000000000000000000, -0.0000000000000000000 ) ) ;
#20 = DIRECTION ( 'NONE',  ( 0.0000000000000000000, 0.0000000000000000000, -1.000000000000000000 ) ) ;
#21 = LINE ( 'NONE', #22, #105 ) ;
#22 = CARTESIAN_POINT ( 'NONE',  ( 1.530808498934191500E-017, 0.1250000000000000000, 0.1250000000000000000 ) ) ;
#23 = DIRECTION ( 'NONE',  ( -0.0000000000000000000, -1.000000000000000000, -0.0000000000000000000 ) ) ;
#24 = PLANE ( 'NONE',  #123 ) ;
#25 = CARTESIAN_POINT ( 'NONE',  ( 0.0000000000000000000, 0.1250000000000000000, 0.0000000000000000000 ) ) ;
#26 = DIRECTION ( 'NONE',  ( 0.0000000000000000000, 1.000000000000000000, 0.0000000000000000000 ) ) ;
#27 = DIRECTION ( 'NONE',  ( 0.0000000000000000000, -0.0000000000000000000, 1.000000000000000000 ) ) ;
#28 = CARTESIAN_POINT ( 'NONE',  ( 0.0000000000000000000, 0.1250000000000000000, 0.0000000000000000000 ) ) ;
#29 = DIRECTION ( 'NONE',  ( 0.0000000000000000000, 1.000000000000000000, 0.0000000000000000000 ) ) ;
#30 = DIRECTION ( 'NONE',  ( 0.0000000000000000000, 0.0000000000000000000, 1.000000000000000000 ) ) ;
#31 = CARTESIAN_POINT ( 'NONE',  ( 0.0000000000000000000, 0.1250000000000000000, 0.0000000000000000000 ) ) ;
#32 = DIRECTION ( 'NONE',  ( -0.0000000000000000000, -1.000000000000000000, -0.0000000000000000000 ) ) ;
#33 = DIRECTION ( 'NONE',  ( 0.0000000000000000000, 0.0000000000000000000, -1.000000000000000000 ) ) ;
#34 = CARTESIAN_POINT ( 'NONE',  ( 0.0000000000000000000, 0.0000000000000000000, 0.0000000000000000000 ) ) ;
#35 = DIRECTION ( 'NONE',  ( 0.0000000000000000000, 1.000000000000000000, 0.0000000000000000000 ) ) ;
#36 = DIRECTION ( 'NONE',  ( 0.0000000000000000000, 0.0000000000000000000, 1.000000000000000000 ) ) ;
#37 = CARTESIAN_POINT ( 'NONE',  ( 0.0000000000000000000, 0.0000000000000000000, -0.1250000000000000000 ) ) ;
#38 = FILL_AREA_STYLE_COLOUR ( '', #80 ) ;
#39 = FILL_AREA_STYLE ('',( #38 ) ) ;
#40 = SURFACE_STYLE_FILL_AREA ( #39 ) ;
#41 = SURFACE_SIDE_STYLE ('',( #40 ) ) ;
#42 = SURFACE_STYLE_USAGE ( .BOTH. , #41 ) ;
#43 = PRESENTATION_STYLE_ASSIGNMENT (( #42 ) ) ;
#44 =( LENGTH_UNIT ( ) NAMED_UNIT ( * ) SI_UNIT ( $, .METRE. ) );
#45 =( CONVERSION_BASED_UNIT ( 'INCH', #115 ) LENGTH_UNIT ( ) NAMED_UNIT ( #73 ) );
#46 =( NAMED_UNIT ( * ) PLANE_ANGLE_UNIT ( ) SI_UNIT ( $, .RADIAN. ) );
#47 =( NAMED_UNIT ( * ) SI_UNIT ( $, .STERADIAN. ) SOLID_ANGLE_UNIT ( ) );
#48 = CARTESIAN_POINT ( 'NONE',  ( 1.530808498934191500E-017, 0.0000000000000000000, 0.1250000000000000000 ) ) ;
#49 = CARTESIAN_POINT ( 'NONE',  ( 0.0000000000000000000, 0.1250000000000000000, -0.1250000000000000000 ) ) ;
#50 = CARTESIAN_POINT ( 'NONE',  ( 1.530808498934191500E-017, 0.1250000000000000000, 0.1250000000000000000 ) ) ;
#51 =( LENGTH_UNIT ( ) NAMED_UNIT ( * ) SI_UNIT ( $, .METRE. ) );
#52 =( CONVERSION_BASED_UNIT ( 'INCH', #112 ) LENGTH_UNIT ( ) NAMED_UNIT ( #72 ) );
#53 =( NAMED_UNIT ( * ) PLANE_ANGLE_UNIT ( ) SI_UNIT ( $, .RADIAN. ) );
#54 =( NAMED_UNIT ( * ) SI_UNIT ( $, .STERADIAN. ) SOLID_ANGLE_UNIT ( ) );
#55 = APPLICATION_PROTOCOL_DEFINITION ( 'draft international standard', 'automotive_design', 1998, #131 ) ;
#56 = FILL_AREA_STYLE_COLOUR ( '', #93 ) ;
#57 = FILL_AREA_STYLE ('',( #56 ) ) ;
#58 = SURFACE_STYLE_FILL_AREA ( #57 ) ;
#59 = SURFACE_SIDE_STYLE ('',( #58 ) ) ;
#60 = SURFACE_STYLE_USAGE ( .BOTH. , #59 ) ;
#61 = PRESENTATION_STYLE_ASSIGNMENT (( #60 ) ) ;
#62 =( LENGTH_UNIT ( ) NAMED_UNIT ( * ) SI_UNIT ( $, .METRE. ) );
#63 =( CONVERSION_BASED_UNIT ( 'INCH', #116 ) LENGTH_UNIT ( ) NAMED_UNIT ( #74 ) );
#64 =( NAMED_UNIT ( * ) PLANE_ANGLE_UNIT ( ) SI_UNIT ( $, .RADIAN. ) );
#65 =( NAMED_UNIT ( * ) SI_UNIT ( $, .STERADIAN. ) SOLID_ANGLE_UNIT ( ) );
#66 = CARTESIAN_POINT ( 'NONE',  ( 0.0000000000000000000, 0.0000000000000000000, 0.0000000000000000000 ) ) ;
#67 = DIRECTION ( 'NONE',  ( 0.0000000000000000000, 0.0000000000000000000, 1.000000000000000000 ) ) ;
#68 = DIRECTION ( 'NONE',  ( 1.000000000000000000, 0.0000000000000000000, 0.0000000000000000000 ) ) ;
#69 = SHAPE_DEFINITION_REPRESENTATION ( #110, #145 ) ;
#70 = PRODUCT_CONTEXT ( 'NONE', #131, 'mechanical' ) ;
#71 = APPLICATION_PROTOCOL_DEFINITION ( 'draft international standard', 'automotive_design', 1998, #130 ) ;
#72 = DIMENSIONAL_EXPONENTS ( 1.000000000000000000, 0.0000000000000000000, 0.0000000000000000000, 0.0000000000000000000, 0.0000000000000000000, 0.0000000000000000000, 0.0000000000000000000 ) ;
#73 = DIMENSIONAL_EXPONENTS ( 1.000000000000000000, 0.0000000000000000000, 0.0000000000000000000, 0.0000000000000000000, 0.0000000000000000000, 0.0000000000000000000, 0.0000000000000000000 ) ;
#74 = DIMENSIONAL_EXPONENTS ( 1.000000000000000000, 0.0000000000000000000, 0.0000000000000000000, 0.0000000000000000000, 0.0000000000000000000, 0.0000000000000000000, 0.0000000000000000000 ) ;
#75 = PRODUCT ( 'D125BN45', 'D125BN45', '', ( #70 ) ) ;
#76 = EDGE_LOOP ( 'NONE', ( #1, #2 ) ) ;
#77 = EDGE_LOOP ( 'NONE', ( #3, #4 ) ) ;
#78 = EDGE_LOOP ( 'NONE', ( #135, #128, #129, #132 ) ) ;
#79 = ADVANCED_FACE ( 'NONE', ( #102 ), #5, .F. ) ;
#80 = COLOUR_RGB ( '',0.5686274509803921400, 0.5686274509803921400, 0.5882352941176470800 ) ;
#81 = CIRCLE ( 'NONE', #121, 0.1250000000000000000 ) ;
#82 = CIRCLE ( 'NONE', #103, 0.1250000000000000000 ) ;
#83 = EDGE_CURVE ( 'NONE', #140, #138, #9, .T. ) ;
#84 = EDGE_CURVE ( 'NONE', #139, #138, #82, .T. ) ;
#85 = EDGE_CURVE ( 'NONE', #140, #141, #86, .T. ) ;
#86 = CIRCLE ( 'NONE', #106, 0.1250000000000000000 ) ;
#87 = PRODUCT_DEFINITION ( 'UNKNOWN', '', #119, #111 ) ;
#88 = PRODUCT_RELATED_PRODUCT_CATEGORY ( 'part', '', ( #75 ) ) ;
#89 = ADVANCED_FACE ( 'NONE', ( #98 ), #97, .T. ) ;
#90 = EDGE_CURVE ( 'NONE', #141, #139, #21, .T. ) ;
#91 = ADVANCED_FACE ( 'NONE', ( #99 ), #24, .T. ) ;
#92 = EDGE_CURVE ( 'NONE', #141, #140, #94, .T. ) ;
#93 = COLOUR_RGB ( '',0.5686274509803921400, 0.5686274509803921400, 0.5882352941176470800 ) ;
#94 = CIRCLE ( 'NONE', #120, 0.1250000000000000000 ) ;
#95 = ADVANCED_FACE ( 'NONE', ( #107 ), #124, .T. ) ;
#96 = EDGE_CURVE ( 'NONE', #138, #139, #81, .T. ) ;
#97 = CYLINDRICAL_SURFACE ( 'NONE', #104, 0.1250000000000000000 ) ;
#98 = FACE_OUTER_BOUND ( 'NONE', #78, .T. ) ;
#99 = FACE_OUTER_BOUND ( 'NONE', #76, .T. ) ;
#100 = CLOSED_SHELL ( 'NONE', ( #95, #89, #91, #79 ) ) ;
#101 = AXIS2_PLACEMENT_3D ( 'NONE', #6, #7, #8 ) ;
#102 = FACE_OUTER_BOUND ( 'NONE', #77, .T. ) ;
#103 = AXIS2_PLACEMENT_3D ( 'NONE', #12, #13, #14 ) ;
#104 = AXIS2_PLACEMENT_3D ( 'NONE', #18, #19, #20 ) ;
#105 = VECTOR ( 'NONE', #23, 39.37007874015748100 ) ;
#106 = AXIS2_PLACEMENT_3D ( 'NONE', #15, #16, #17 ) ;
#107 = FACE_OUTER_BOUND ( 'NONE', #142, .T. ) ;
#108 = VECTOR ( 'NONE', #11, 39.37007874015748100 ) ;
#109 = MANIFOLD_SOLID_BREP ( 'Boss-Extrude1', #100 ) ;
#110 = PRODUCT_DEFINITION_SHAPE ( 'NONE', 'NONE',  #87 ) ;
#111 = PRODUCT_DEFINITION_CONTEXT ( 'detailed design', #130, 'design' ) ;
#112 = LENGTH_MEASURE_WITH_UNIT ( LENGTH_MEASURE( 0.02539999999999999900 ), #51 );
#113 = MECHANICAL_DESIGN_GEOMETRIC_PRESENTATION_REPRESENTATION (  '', ( #122 ), #147 ) ;
#114 = AXIS2_PLACEMENT_3D ( 'NONE', #66, #67, #68 ) ;
#115 = LENGTH_MEASURE_WITH_UNIT ( LENGTH_MEASURE( 0.02539999999999999900 ), #44 );
#116 = LENGTH_MEASURE_WITH_UNIT ( LENGTH_MEASURE( 0.02539999999999999900 ), #62 );
#117 = MECHANICAL_DESIGN_GEOMETRIC_PRESENTATION_REPRESENTATION (  '', ( #118 ), #149 ) ;
#118 = STYLED_ITEM ( 'NONE', ( #61 ), #145 ) ;
#119 = PRODUCT_DEFINITION_FORMATION_WITH_SPECIFIED_SOURCE ( 'ANY', '', #75, .NOT_KNOWN. ) ;
#120 = AXIS2_PLACEMENT_3D ( 'NONE', #28, #29, #30 ) ;
#121 = AXIS2_PLACEMENT_3D ( 'NONE', #34, #35, #36 ) ;
#122 = STYLED_ITEM ( 'NONE', ( #43 ), #109 ) ;
#123 = AXIS2_PLACEMENT_3D ( 'NONE', #25, #26, #27 ) ;
#124 = CYLINDRICAL_SURFACE ( 'NONE', #126, 0.1250000000000000000 ) ;
#125 = PRESENTATION_LAYER_ASSIGNMENT (  '', '', ( #118 ) ) ;
#126 = AXIS2_PLACEMENT_3D ( 'NONE', #31, #32, #33 ) ;
#127 = PRESENTATION_LAYER_ASSIGNMENT (  '', '', ( #122 ) ) ;
#128 = ORIENTED_EDGE ( 'NONE', *, *, #85, .F. ) ;
#129 = ORIENTED_EDGE ( 'NONE', *, *, #83, .T. ) ;
#130 = APPLICATION_CONTEXT ( 'automotive_design' ) ;
#131 = APPLICATION_CONTEXT ( 'automotive_design' ) ;
#132 = ORIENTED_EDGE ( 'NONE', *, *, #96, .T. ) ;
#133 = ORIENTED_EDGE ( 'NONE', *, *, #90, .T. ) ;
#134 = ORIENTED_EDGE ( 'NONE', *, *, #83, .F. ) ;
#135 = ORIENTED_EDGE ( 'NONE', *, *, #90, .F. ) ;
#136 = ORIENTED_EDGE ( 'NONE', *, *, #84, .T. ) ;
#137 = ORIENTED_EDGE ( 'NONE', *, *, #92, .F. ) ;
#138 = VERTEX_POINT ( 'NONE', #37 ) ;
#139 = VERTEX_POINT ( 'NONE', #48 ) ;
#140 = VERTEX_POINT ( 'NONE', #49 ) ;
#141 = VERTEX_POINT ( 'NONE', #50 ) ;
#142 = EDGE_LOOP ( 'NONE', ( #137, #133, #136, #134 ) ) ;
#143 = UNCERTAINTY_MEASURE_WITH_UNIT (LENGTH_MEASURE( 1.000000000000000100E-005 ), #52, 'distance_accuracy_value', 'NONE');
#144 = UNCERTAINTY_MEASURE_WITH_UNIT (LENGTH_MEASURE( 1.000000000000000100E-005 ), #45, 'distance_accuracy_value', 'NONE');
#145 = ADVANCED_BREP_SHAPE_REPRESENTATION ( 'D125BN45', ( #109, #114 ), #148 ) ;
#146 = UNCERTAINTY_MEASURE_WITH_UNIT (LENGTH_MEASURE( 1.000000000000000100E-005 ), #63, 'distance_accuracy_value', 'NONE');
#147 =( GEOMETRIC_REPRESENTATION_CONTEXT ( 3 ) GLOBAL_UNCERTAINTY_ASSIGNED_CONTEXT ( ( #144 ) ) GLOBAL_UNIT_ASSIGNED_CONTEXT ( ( #45, #46, #47 ) ) REPRESENTATION_CONTEXT ( 'NONE', 'WORKASPACE' ) );
#148 =( GEOMETRIC_REPRESENTATION_CONTEXT ( 3 ) GLOBAL_UNCERTAINTY_ASSIGNED_CONTEXT ( ( #143 ) ) GLOBAL_UNIT_ASSIGNED_CONTEXT ( ( #52, #53, #54 ) ) REPRESENTATION_CONTEXT ( 'NONE', 'WORKASPACE' ) );
#149 =( GEOMETRIC_REPRESENTATION_CONTEXT ( 3 ) GLOBAL_UNCERTAINTY_ASSIGNED_CONTEXT ( ( #146 ) ) GLOBAL_UNIT_ASSIGNED_CONTEXT ( ( #63, #64, #65 ) ) REPRESENTATION_CONTEXT ( 'NONE', 'WORKASPACE' ) );
ENDSEC;
END-ISO-10303-21;
