ISO-10303-21;
HEADER;
FILE_DESCRIPTION (( 'STEP AP214' ),
    '1' );
FILE_NAME ('D125D.step',
    '2012-04-20T20:53:37',
    ( '' ),
    ( '' ),
    'SwSTEP 2.0',
    'SolidWorks 2012',
    '' );
FILE_SCHEMA (( 'AUTOMOTIVE_DESIGN' ));
ENDSEC;

DATA;
#1 = ORIENTED_EDGE ( 'NONE', *, *, #82, .T. ) ;
#2 = ORIENTED_EDGE ( 'NONE', *, *, #86, .F. ) ;
#3 = ORIENTED_EDGE ( 'NONE', *, *, #82, .F. ) ;
#4 = ORIENTED_EDGE ( 'NONE', *, *, #86, .T. ) ;
#5 = ORIENTED_EDGE ( 'NONE', *, *, #90, .F. ) ;
#6 = ORIENTED_EDGE ( 'NONE', *, *, #81, .T. ) ;
#7 = ORIENTED_EDGE ( 'NONE', *, *, #90, .T. ) ;
#8 = ORIENTED_EDGE ( 'NONE', *, *, #84, .T. ) ;
#9 = ORIENTED_EDGE ( 'NONE', *, *, #81, .F. ) ;
#10 = ORIENTED_EDGE ( 'NONE', *, *, #83, .F. ) ;
#11 = PLANE ( 'NONE',  #107 ) ;
#12 = CARTESIAN_POINT ( 'NONE',  ( 0.0000000000000000000, 0.1250000000000000000, 0.0000000000000000000 ) ) ;
#13 = DIRECTION ( 'NONE',  ( 0.0000000000000000000, 1.000000000000000000, 0.0000000000000000000 ) ) ;
#14 = DIRECTION ( 'NONE',  ( 0.0000000000000000000, -0.0000000000000000000, 1.000000000000000000 ) ) ;
#15 = PLANE ( 'NONE',  #104 ) ;
#16 = CARTESIAN_POINT ( 'NONE',  ( 0.0000000000000000000, 0.0000000000000000000, 0.0000000000000000000 ) ) ;
#17 = DIRECTION ( 'NONE',  ( 0.0000000000000000000, 1.000000000000000000, 0.0000000000000000000 ) ) ;
#18 = DIRECTION ( 'NONE',  ( 0.0000000000000000000, -0.0000000000000000000, 1.000000000000000000 ) ) ;
#19 = CARTESIAN_POINT ( 'NONE',  ( 0.0000000000000000000, 0.0000000000000000000, 0.0000000000000000000 ) ) ;
#20 = DIRECTION ( 'NONE',  ( 0.0000000000000000000, 1.000000000000000000, 0.0000000000000000000 ) ) ;
#21 = DIRECTION ( 'NONE',  ( 0.0000000000000000000, 0.0000000000000000000, 1.000000000000000000 ) ) ;
#22 = CARTESIAN_POINT ( 'NONE',  ( 0.0000000000000000000, 0.0000000000000000000, 0.0000000000000000000 ) ) ;
#23 = LINE ( 'NONE', #24, #96 ) ;
#24 = CARTESIAN_POINT ( 'NONE',  ( 3.061616997868383000E-017, 0.1250000000000000000, 0.2500000000000000000 ) ) ;
#25 = DIRECTION ( 'NONE',  ( -0.0000000000000000000, -1.000000000000000000, -0.0000000000000000000 ) ) ;
#26 = DIRECTION ( 'NONE',  ( 0.0000000000000000000, 1.000000000000000000, 0.0000000000000000000 ) ) ;
#27 = DIRECTION ( 'NONE',  ( 0.0000000000000000000, 0.0000000000000000000, 1.000000000000000000 ) ) ;
#28 = CARTESIAN_POINT ( 'NONE',  ( 0.0000000000000000000, 0.1250000000000000000, 0.0000000000000000000 ) ) ;
#29 = DIRECTION ( 'NONE',  ( 0.0000000000000000000, 1.000000000000000000, 0.0000000000000000000 ) ) ;
#30 = DIRECTION ( 'NONE',  ( 0.0000000000000000000, 0.0000000000000000000, 1.000000000000000000 ) ) ;
#31 = CARTESIAN_POINT ( 'NONE',  ( 0.0000000000000000000, 0.1250000000000000000, 0.0000000000000000000 ) ) ;
#32 = LINE ( 'NONE', #33, #99 ) ;
#33 = CARTESIAN_POINT ( 'NONE',  ( 0.0000000000000000000, 0.1250000000000000000, -0.2500000000000000000 ) ) ;
#34 = DIRECTION ( 'NONE',  ( -0.0000000000000000000, -1.000000000000000000, -0.0000000000000000000 ) ) ;
#35 = DIRECTION ( 'NONE',  ( -0.0000000000000000000, -1.000000000000000000, -0.0000000000000000000 ) ) ;
#36 = DIRECTION ( 'NONE',  ( 0.0000000000000000000, 0.0000000000000000000, -1.000000000000000000 ) ) ;
#37 = CARTESIAN_POINT ( 'NONE',  ( 0.0000000000000000000, 0.1250000000000000000, 0.0000000000000000000 ) ) ;
#38 = DIRECTION ( 'NONE',  ( 0.0000000000000000000, 1.000000000000000000, 0.0000000000000000000 ) ) ;
#39 = DIRECTION ( 'NONE',  ( 0.0000000000000000000, 0.0000000000000000000, 1.000000000000000000 ) ) ;
#40 = CARTESIAN_POINT ( 'NONE',  ( 0.0000000000000000000, 0.1250000000000000000, 0.0000000000000000000 ) ) ;
#41 = DIRECTION ( 'NONE',  ( -0.0000000000000000000, -1.000000000000000000, -0.0000000000000000000 ) ) ;
#42 = DIRECTION ( 'NONE',  ( 0.0000000000000000000, 0.0000000000000000000, -1.000000000000000000 ) ) ;
#43 = FILL_AREA_STYLE_COLOUR ( '', #78 ) ;
#44 = FILL_AREA_STYLE ('',( #43 ) ) ;
#45 = SURFACE_STYLE_FILL_AREA ( #44 ) ;
#46 = SURFACE_SIDE_STYLE ('',( #45 ) ) ;
#47 = SURFACE_STYLE_USAGE ( .BOTH. , #46 ) ;
#48 = PRESENTATION_STYLE_ASSIGNMENT (( #47 ) ) ;
#49 =( LENGTH_UNIT ( ) NAMED_UNIT ( * ) SI_UNIT ( $, .METRE. ) );
#50 =( CONVERSION_BASED_UNIT ( 'INCH', #115 ) LENGTH_UNIT ( ) NAMED_UNIT ( #147 ) );
#51 =( NAMED_UNIT ( * ) PLANE_ANGLE_UNIT ( ) SI_UNIT ( $, .RADIAN. ) );
#52 =( NAMED_UNIT ( * ) SI_UNIT ( $, .STERADIAN. ) SOLID_ANGLE_UNIT ( ) );
#53 = CARTESIAN_POINT ( 'NONE',  ( 0.0000000000000000000, 0.0000000000000000000, -0.2500000000000000000 ) ) ;
#54 = CARTESIAN_POINT ( 'NONE',  ( 3.061616997868383000E-017, 0.1250000000000000000, 0.2500000000000000000 ) ) ;
#55 = CARTESIAN_POINT ( 'NONE',  ( 0.0000000000000000000, 0.1250000000000000000, -0.2500000000000000000 ) ) ;
#56 = CARTESIAN_POINT ( 'NONE',  ( 3.061616997868383000E-017, 0.0000000000000000000, 0.2500000000000000000 ) ) ;
#57 =( LENGTH_UNIT ( ) NAMED_UNIT ( * ) SI_UNIT ( $, .METRE. ) );
#58 =( CONVERSION_BASED_UNIT ( 'INCH', #123 ) LENGTH_UNIT ( ) NAMED_UNIT ( #146 ) );
#59 =( NAMED_UNIT ( * ) PLANE_ANGLE_UNIT ( ) SI_UNIT ( $, .RADIAN. ) );
#60 =( NAMED_UNIT ( * ) SI_UNIT ( $, .STERADIAN. ) SOLID_ANGLE_UNIT ( ) );
#61 = APPLICATION_PROTOCOL_DEFINITION ( 'draft international standard', 'automotive_design', 1998, #130 ) ;
#62 = FILL_AREA_STYLE_COLOUR ( '', #93 ) ;
#63 = FILL_AREA_STYLE ('',( #62 ) ) ;
#64 = SURFACE_STYLE_FILL_AREA ( #63 ) ;
#65 = SURFACE_SIDE_STYLE ('',( #64 ) ) ;
#66 = SURFACE_STYLE_USAGE ( .BOTH. , #65 ) ;
#67 = PRESENTATION_STYLE_ASSIGNMENT (( #66 ) ) ;
#68 =( LENGTH_UNIT ( ) NAMED_UNIT ( * ) SI_UNIT ( $, .METRE. ) );
#69 =( CONVERSION_BASED_UNIT ( 'INCH', #119 ) LENGTH_UNIT ( ) NAMED_UNIT ( #148 ) );
#70 =( NAMED_UNIT ( * ) PLANE_ANGLE_UNIT ( ) SI_UNIT ( $, .RADIAN. ) );
#71 =( NAMED_UNIT ( * ) SI_UNIT ( $, .STERADIAN. ) SOLID_ANGLE_UNIT ( ) );
#72 = CARTESIAN_POINT ( 'NONE',  ( 0.0000000000000000000, 0.0000000000000000000, 0.0000000000000000000 ) ) ;
#73 = DIRECTION ( 'NONE',  ( 0.0000000000000000000, 0.0000000000000000000, 1.000000000000000000 ) ) ;
#74 = DIRECTION ( 'NONE',  ( 1.000000000000000000, 0.0000000000000000000, 0.0000000000000000000 ) ) ;
#75 = SHAPE_DEFINITION_REPRESENTATION ( #109, #139 ) ;
#76 = PRODUCT_CONTEXT ( 'NONE', #130, 'mechanical' ) ;
#77 = APPLICATION_PROTOCOL_DEFINITION ( 'draft international standard', 'automotive_design', 1998, #129 ) ;
#78 = COLOUR_RGB ( '',0.5686274509803921400, 0.5686274509803921400, 0.5882352941176470800 ) ;
#79 = ADVANCED_FACE ( 'NONE', ( #106 ), #11, .T. ) ;
#80 = ADVANCED_FACE ( 'NONE', ( #97 ), #15, .F. ) ;
#81 = EDGE_CURVE ( 'NONE', #131, #138, #87, .T. ) ;
#82 = EDGE_CURVE ( 'NONE', #132, #138, #23, .T. ) ;
#83 = EDGE_CURVE ( 'NONE', #138, #131, #95, .T. ) ;
#84 = EDGE_CURVE ( 'NONE', #132, #135, #92, .T. ) ;
#85 = PRODUCT_RELATED_PRODUCT_CATEGORY ( 'part', '', ( #149 ) ) ;
#86 = EDGE_CURVE ( 'NONE', #135, #131, #32, .T. ) ;
#87 = CIRCLE ( 'NONE', #103, 0.2500000000000000000 ) ;
#88 = ADVANCED_FACE ( 'NONE', ( #98 ), #113, .T. ) ;
#89 = CIRCLE ( 'NONE', #105, 0.2500000000000000000 ) ;
#90 = EDGE_CURVE ( 'NONE', #135, #132, #89, .T. ) ;
#91 = ADVANCED_FACE ( 'NONE', ( #101 ), #120, .T. ) ;
#92 = CIRCLE ( 'NONE', #108, 0.2500000000000000000 ) ;
#93 = COLOUR_RGB ( '',0.5686274509803921400, 0.5686274509803921400, 0.5882352941176470800 ) ;
#94 = PRODUCT_DEFINITION ( 'UNKNOWN', '', #122, #111 ) ;
#95 = CIRCLE ( 'NONE', #102, 0.2500000000000000000 ) ;
#96 = VECTOR ( 'NONE', #25, 39.37007874015748100 ) ;
#97 = FACE_OUTER_BOUND ( 'NONE', #134, .T. ) ;
#98 = FACE_OUTER_BOUND ( 'NONE', #127, .T. ) ;
#99 = VECTOR ( 'NONE', #34, 39.37007874015748100 ) ;
#100 = CLOSED_SHELL ( 'NONE', ( #91, #88, #79, #80 ) ) ;
#101 = FACE_OUTER_BOUND ( 'NONE', #136, .T. ) ;
#102 = AXIS2_PLACEMENT_3D ( 'NONE', #22, #26, #27 ) ;
#103 = AXIS2_PLACEMENT_3D ( 'NONE', #19, #20, #21 ) ;
#104 = AXIS2_PLACEMENT_3D ( 'NONE', #16, #17, #18 ) ;
#105 = AXIS2_PLACEMENT_3D ( 'NONE', #37, #38, #39 ) ;
#106 = FACE_OUTER_BOUND ( 'NONE', #133, .T. ) ;
#107 = AXIS2_PLACEMENT_3D ( 'NONE', #12, #13, #14 ) ;
#108 = AXIS2_PLACEMENT_3D ( 'NONE', #28, #29, #30 ) ;
#109 = PRODUCT_DEFINITION_SHAPE ( 'NONE', 'NONE',  #94 ) ;
#110 = MANIFOLD_SOLID_BREP ( 'Boss-Extrude1', #100 ) ;
#111 = PRODUCT_DEFINITION_CONTEXT ( 'detailed design', #129, 'design' ) ;
#112 = STYLED_ITEM ( 'NONE', ( #48 ), #110 ) ;
#113 = CYLINDRICAL_SURFACE ( 'NONE', #114, 0.2500000000000000000 ) ;
#114 = AXIS2_PLACEMENT_3D ( 'NONE', #31, #35, #36 ) ;
#115 = LENGTH_MEASURE_WITH_UNIT ( LENGTH_MEASURE( 0.02539999999999999900 ), #49 );
#116 = PRESENTATION_LAYER_ASSIGNMENT (  '', '', ( #112 ) ) ;
#117 = STYLED_ITEM ( 'NONE', ( #67 ), #139 ) ;
#118 = PRESENTATION_LAYER_ASSIGNMENT (  '', '', ( #117 ) ) ;
#119 = LENGTH_MEASURE_WITH_UNIT ( LENGTH_MEASURE( 0.02539999999999999900 ), #68 );
#120 = CYLINDRICAL_SURFACE ( 'NONE', #126, 0.2500000000000000000 ) ;
#121 = MECHANICAL_DESIGN_GEOMETRIC_PRESENTATION_REPRESENTATION (  '', ( #112 ), #143 ) ;
#122 = PRODUCT_DEFINITION_FORMATION_WITH_SPECIFIED_SOURCE ( 'ANY', '', #149, .NOT_KNOWN. ) ;
#123 = LENGTH_MEASURE_WITH_UNIT ( LENGTH_MEASURE( 0.02539999999999999900 ), #57 );
#124 = MECHANICAL_DESIGN_GEOMETRIC_PRESENTATION_REPRESENTATION (  '', ( #117 ), #145 ) ;
#125 = AXIS2_PLACEMENT_3D ( 'NONE', #72, #73, #74 ) ;
#126 = AXIS2_PLACEMENT_3D ( 'NONE', #40, #41, #42 ) ;
#127 = EDGE_LOOP ( 'NONE', ( #3, #5, #4, #6 ) ) ;
#128 = ORIENTED_EDGE ( 'NONE', *, *, #84, .F. ) ;
#129 = APPLICATION_CONTEXT ( 'automotive_design' ) ;
#130 = APPLICATION_CONTEXT ( 'automotive_design' ) ;
#131 = VERTEX_POINT ( 'NONE', #53 ) ;
#132 = VERTEX_POINT ( 'NONE', #54 ) ;
#133 = EDGE_LOOP ( 'NONE', ( #7, #8 ) ) ;
#134 = EDGE_LOOP ( 'NONE', ( #9, #10 ) ) ;
#135 = VERTEX_POINT ( 'NONE', #55 ) ;
#136 = EDGE_LOOP ( 'NONE', ( #128, #1, #137, #2 ) ) ;
#137 = ORIENTED_EDGE ( 'NONE', *, *, #83, .T. ) ;
#138 = VERTEX_POINT ( 'NONE', #56 ) ;
#139 = ADVANCED_BREP_SHAPE_REPRESENTATION ( 'D125D', ( #110, #125 ), #144 ) ;
#140 = UNCERTAINTY_MEASURE_WITH_UNIT (LENGTH_MEASURE( 1.000000000000000100E-005 ), #50, 'distance_accuracy_value', 'NONE');
#141 = UNCERTAINTY_MEASURE_WITH_UNIT (LENGTH_MEASURE( 1.000000000000000100E-005 ), #69, 'distance_accuracy_value', 'NONE');
#142 = UNCERTAINTY_MEASURE_WITH_UNIT (LENGTH_MEASURE( 1.000000000000000100E-005 ), #58, 'distance_accuracy_value', 'NONE');
#143 =( GEOMETRIC_REPRESENTATION_CONTEXT ( 3 ) GLOBAL_UNCERTAINTY_ASSIGNED_CONTEXT ( ( #140 ) ) GLOBAL_UNIT_ASSIGNED_CONTEXT ( ( #50, #51, #52 ) ) REPRESENTATION_CONTEXT ( 'NONE', 'WORKASPACE' ) );
#144 =( GEOMETRIC_REPRESENTATION_CONTEXT ( 3 ) GLOBAL_UNCERTAINTY_ASSIGNED_CONTEXT ( ( #142 ) ) GLOBAL_UNIT_ASSIGNED_CONTEXT ( ( #58, #59, #60 ) ) REPRESENTATION_CONTEXT ( 'NONE', 'WORKASPACE' ) );
#145 =( GEOMETRIC_REPRESENTATION_CONTEXT ( 3 ) GLOBAL_UNCERTAINTY_ASSIGNED_CONTEXT ( ( #141 ) ) GLOBAL_UNIT_ASSIGNED_CONTEXT ( ( #69, #70, #71 ) ) REPRESENTATION_CONTEXT ( 'NONE', 'WORKASPACE' ) );
#146 = DIMENSIONAL_EXPONENTS ( 1.000000000000000000, 0.0000000000000000000, 0.0000000000000000000, 0.0000000000000000000, 0.0000000000000000000, 0.0000000000000000000, 0.0000000000000000000 ) ;
#147 = DIMENSIONAL_EXPONENTS ( 1.000000000000000000, 0.0000000000000000000, 0.0000000000000000000, 0.0000000000000000000, 0.0000000000000000000, 0.0000000000000000000, 0.0000000000000000000 ) ;
#148 = DIMENSIONAL_EXPONENTS ( 1.000000000000000000, 0.0000000000000000000, 0.0000000000000000000, 0.0000000000000000000, 0.0000000000000000000, 0.0000000000000000000, 0.0000000000000000000 ) ;
#149 = PRODUCT ( 'D125D', 'D125D', '', ( #76 ) ) ;
ENDSEC;
END-ISO-10303-21;
