ISO-10303-21;
HEADER;
FILE_DESCRIPTION (( 'STEP AP214' ),
    '1' );
FILE_NAME ('D125DN45.step',
    '2012-04-20T20:53:43',
    ( '' ),
    ( '' ),
    'SwSTEP 2.0',
    'SolidWorks 2012',
    '' );
FILE_SCHEMA (( 'AUTOMOTIVE_DESIGN' ));
ENDSEC;

DATA;
#1 = PRODUCT ( 'D125DN45', 'D125DN45', '', ( #129 ) ) ;
#2 = ADVANCED_FACE ( 'NONE', ( #27 ), #64, .F. ) ;
#3 = PRODUCT_RELATED_PRODUCT_CATEGORY ( 'part', '', ( #1 ) ) ;
#4 = EDGE_CURVE ( 'NONE', #137, #135, #9, .T. ) ;
#5 = EDGE_CURVE ( 'NONE', #135, #133, #72, .T. ) ;
#6 = CIRCLE ( 'NONE', #36, 0.2500000000000000000 ) ;
#7 = EDGE_CURVE ( 'NONE', #136, #133, #16, .T. ) ;
#8 = ADVANCED_FACE ( 'NONE', ( #24 ), #77, .T. ) ;
#9 = CIRCLE ( 'NONE', #28, 0.2500000000000000000 ) ;
#10 = COLOUR_RGB ( '',0.5686274509803921400, 0.5686274509803921400, 0.5882352941176470800 ) ;
#11 = CIRCLE ( 'NONE', #20, 0.2500000000000000000 ) ;
#12 = COLOUR_RGB ( '',0.5686274509803921400, 0.5686274509803921400, 0.5882352941176470800 ) ;
#13 = EDGE_CURVE ( 'NONE', #137, #136, #81, .T. ) ;
#14 = ADVANCED_FACE ( 'NONE', ( #25 ), #26, .T. ) ;
#15 = ADVANCED_FACE ( 'NONE', ( #19 ), #49, .T. ) ;
#16 = CIRCLE ( 'NONE', #21, 0.2500000000000000000 ) ;
#17 = EDGE_CURVE ( 'NONE', #135, #137, #11, .T. ) ;
#18 = EDGE_CURVE ( 'NONE', #133, #136, #6, .T. ) ;
#19 = FACE_OUTER_BOUND ( 'NONE', #60, .T. ) ;
#20 = AXIS2_PLACEMENT_3D ( 'NONE', #90, #91, #92 ) ;
#21 = AXIS2_PLACEMENT_3D ( 'NONE', #71, #75, #76 ) ;
#22 = VECTOR ( 'NONE', #83, 39.37007874015748100 ) ;
#23 = AXIS2_PLACEMENT_3D ( 'NONE', #84, #85, #86 ) ;
#24 = FACE_OUTER_BOUND ( 'NONE', #62, .T. ) ;
#25 = FACE_OUTER_BOUND ( 'NONE', #63, .T. ) ;
#26 = CYLINDRICAL_SURFACE ( 'NONE', #23, 0.2500000000000000000 ) ;
#27 = FACE_OUTER_BOUND ( 'NONE', #61, .T. ) ;
#28 = AXIS2_PLACEMENT_3D ( 'NONE', #68, #69, #70 ) ;
#29 = AXIS2_PLACEMENT_3D ( 'NONE', #78, #79, #80 ) ;
#30 = CLOSED_SHELL ( 'NONE', ( #15, #14, #8, #2 ) ) ;
#31 = AXIS2_PLACEMENT_3D ( 'NONE', #65, #66, #67 ) ;
#32 = VECTOR ( 'NONE', #74, 39.37007874015748100 ) ;
#33 = PRODUCT_DEFINITION_CONTEXT ( 'detailed design', #131, 'design' ) ;
#34 = PRODUCT_DEFINITION_SHAPE ( 'NONE', 'NONE',  #147 ) ;
#35 = MANIFOLD_SOLID_BREP ( 'Boss-Extrude1', #30 ) ;
#36 = AXIS2_PLACEMENT_3D ( 'NONE', #93, #94, #95 ) ;
#37 = LENGTH_MEASURE_WITH_UNIT ( LENGTH_MEASURE( 0.02539999999999999900 ), #121 );
#38 = PRESENTATION_LAYER_ASSIGNMENT (  '', '', ( #47 ) ) ;
#39 = STYLED_ITEM ( 'NONE', ( #102 ), #35 ) ;
#40 = LENGTH_MEASURE_WITH_UNIT ( LENGTH_MEASURE( 0.02539999999999999900 ), #103 );
#41 = MECHANICAL_DESIGN_GEOMETRIC_PRESENTATION_REPRESENTATION (  '', ( #39 ), #139 ) ;
#42 = LENGTH_MEASURE_WITH_UNIT ( LENGTH_MEASURE( 0.02539999999999999900 ), #110 );
#43 = MECHANICAL_DESIGN_GEOMETRIC_PRESENTATION_REPRESENTATION (  '', ( #47 ), #141 ) ;
#44 = AXIS2_PLACEMENT_3D ( 'NONE', #125, #126, #127 ) ;
#45 = PRODUCT_DEFINITION_FORMATION_WITH_SPECIFIED_SOURCE ( 'ANY', '', #1, .NOT_KNOWN. ) ;
#46 = PRESENTATION_LAYER_ASSIGNMENT (  '', '', ( #39 ) ) ;
#47 = STYLED_ITEM ( 'NONE', ( #120 ), #144 ) ;
#48 = AXIS2_PLACEMENT_3D ( 'NONE', #87, #88, #89 ) ;
#49 = CYLINDRICAL_SURFACE ( 'NONE', #48, 0.2500000000000000000 ) ;
#50 = ORIENTED_EDGE ( 'NONE', *, *, #13, .T. ) ;
#51 = ORIENTED_EDGE ( 'NONE', *, *, #7, .T. ) ;
#52 = ORIENTED_EDGE ( 'NONE', *, *, #13, .F. ) ;
#53 = ORIENTED_EDGE ( 'NONE', *, *, #5, .T. ) ;
#54 = ORIENTED_EDGE ( 'NONE', *, *, #17, .F. ) ;
#55 = ORIENTED_EDGE ( 'NONE', *, *, #18, .T. ) ;
#56 = ORIENTED_EDGE ( 'NONE', *, *, #17, .T. ) ;
#57 = ORIENTED_EDGE ( 'NONE', *, *, #4, .T. ) ;
#58 = ORIENTED_EDGE ( 'NONE', *, *, #18, .F. ) ;
#59 = ORIENTED_EDGE ( 'NONE', *, *, #7, .F. ) ;
#60 = EDGE_LOOP ( 'NONE', ( #134, #50, #51, #138 ) ) ;
#61 = EDGE_LOOP ( 'NONE', ( #58, #59 ) ) ;
#62 = EDGE_LOOP ( 'NONE', ( #56, #57 ) ) ;
#63 = EDGE_LOOP ( 'NONE', ( #52, #54, #53, #55 ) ) ;
#64 = PLANE ( 'NONE',  #31 ) ;
#65 = CARTESIAN_POINT ( 'NONE',  ( 0.0000000000000000000, 0.0000000000000000000, 0.0000000000000000000 ) ) ;
#66 = DIRECTION ( 'NONE',  ( 0.0000000000000000000, 1.000000000000000000, 0.0000000000000000000 ) ) ;
#67 = DIRECTION ( 'NONE',  ( 0.0000000000000000000, -0.0000000000000000000, 1.000000000000000000 ) ) ;
#68 = CARTESIAN_POINT ( 'NONE',  ( 0.0000000000000000000, 0.1250000000000000000, 0.0000000000000000000 ) ) ;
#69 = DIRECTION ( 'NONE',  ( 0.0000000000000000000, 1.000000000000000000, 0.0000000000000000000 ) ) ;
#70 = DIRECTION ( 'NONE',  ( 0.0000000000000000000, 0.0000000000000000000, 1.000000000000000000 ) ) ;
#71 = CARTESIAN_POINT ( 'NONE',  ( 0.0000000000000000000, 0.0000000000000000000, 0.0000000000000000000 ) ) ;
#72 = LINE ( 'NONE', #73, #32 ) ;
#73 = CARTESIAN_POINT ( 'NONE',  ( 0.0000000000000000000, 0.1250000000000000000, -0.2500000000000000000 ) ) ;
#74 = DIRECTION ( 'NONE',  ( -0.0000000000000000000, -1.000000000000000000, -0.0000000000000000000 ) ) ;
#75 = DIRECTION ( 'NONE',  ( 0.0000000000000000000, 1.000000000000000000, 0.0000000000000000000 ) ) ;
#76 = DIRECTION ( 'NONE',  ( 0.0000000000000000000, 0.0000000000000000000, 1.000000000000000000 ) ) ;
#77 = PLANE ( 'NONE',  #29 ) ;
#78 = CARTESIAN_POINT ( 'NONE',  ( 0.0000000000000000000, 0.1250000000000000000, 0.0000000000000000000 ) ) ;
#79 = DIRECTION ( 'NONE',  ( 0.0000000000000000000, 1.000000000000000000, 0.0000000000000000000 ) ) ;
#80 = DIRECTION ( 'NONE',  ( 0.0000000000000000000, -0.0000000000000000000, 1.000000000000000000 ) ) ;
#81 = LINE ( 'NONE', #82, #22 ) ;
#82 = CARTESIAN_POINT ( 'NONE',  ( 3.061616997868383000E-017, 0.1250000000000000000, 0.2500000000000000000 ) ) ;
#83 = DIRECTION ( 'NONE',  ( -0.0000000000000000000, -1.000000000000000000, -0.0000000000000000000 ) ) ;
#84 = CARTESIAN_POINT ( 'NONE',  ( 0.0000000000000000000, 0.1250000000000000000, 0.0000000000000000000 ) ) ;
#85 = DIRECTION ( 'NONE',  ( -0.0000000000000000000, -1.000000000000000000, -0.0000000000000000000 ) ) ;
#86 = DIRECTION ( 'NONE',  ( 0.0000000000000000000, 0.0000000000000000000, -1.000000000000000000 ) ) ;
#87 = CARTESIAN_POINT ( 'NONE',  ( 0.0000000000000000000, 0.1250000000000000000, 0.0000000000000000000 ) ) ;
#88 = DIRECTION ( 'NONE',  ( -0.0000000000000000000, -1.000000000000000000, -0.0000000000000000000 ) ) ;
#89 = DIRECTION ( 'NONE',  ( 0.0000000000000000000, 0.0000000000000000000, -1.000000000000000000 ) ) ;
#90 = CARTESIAN_POINT ( 'NONE',  ( 0.0000000000000000000, 0.1250000000000000000, 0.0000000000000000000 ) ) ;
#91 = DIRECTION ( 'NONE',  ( 0.0000000000000000000, 1.000000000000000000, 0.0000000000000000000 ) ) ;
#92 = DIRECTION ( 'NONE',  ( 0.0000000000000000000, 0.0000000000000000000, 1.000000000000000000 ) ) ;
#93 = CARTESIAN_POINT ( 'NONE',  ( 0.0000000000000000000, 0.0000000000000000000, 0.0000000000000000000 ) ) ;
#94 = DIRECTION ( 'NONE',  ( 0.0000000000000000000, 1.000000000000000000, 0.0000000000000000000 ) ) ;
#95 = DIRECTION ( 'NONE',  ( 0.0000000000000000000, 0.0000000000000000000, 1.000000000000000000 ) ) ;
#96 = CARTESIAN_POINT ( 'NONE',  ( 0.0000000000000000000, 0.0000000000000000000, -0.2500000000000000000 ) ) ;
#97 = FILL_AREA_STYLE_COLOUR ( '', #12 ) ;
#98 = FILL_AREA_STYLE ('',( #97 ) ) ;
#99 = SURFACE_STYLE_FILL_AREA ( #98 ) ;
#100 = SURFACE_SIDE_STYLE ('',( #99 ) ) ;
#101 = SURFACE_STYLE_USAGE ( .BOTH. , #100 ) ;
#102 = PRESENTATION_STYLE_ASSIGNMENT (( #101 ) ) ;
#103 =( LENGTH_UNIT ( ) NAMED_UNIT ( * ) SI_UNIT ( $, .METRE. ) );
#104 =( CONVERSION_BASED_UNIT ( 'INCH', #40 ) LENGTH_UNIT ( ) NAMED_UNIT ( #148 ) );
#105 =( NAMED_UNIT ( * ) PLANE_ANGLE_UNIT ( ) SI_UNIT ( $, .RADIAN. ) );
#106 =( NAMED_UNIT ( * ) SI_UNIT ( $, .STERADIAN. ) SOLID_ANGLE_UNIT ( ) );
#107 = CARTESIAN_POINT ( 'NONE',  ( 0.0000000000000000000, 0.1250000000000000000, -0.2500000000000000000 ) ) ;
#108 = CARTESIAN_POINT ( 'NONE',  ( 3.061616997868383000E-017, 0.0000000000000000000, 0.2500000000000000000 ) ) ;
#109 = CARTESIAN_POINT ( 'NONE',  ( 3.061616997868383000E-017, 0.1250000000000000000, 0.2500000000000000000 ) ) ;
#110 =( LENGTH_UNIT ( ) NAMED_UNIT ( * ) SI_UNIT ( $, .METRE. ) );
#111 =( CONVERSION_BASED_UNIT ( 'INCH', #42 ) LENGTH_UNIT ( ) NAMED_UNIT ( #149 ) );
#112 =( NAMED_UNIT ( * ) PLANE_ANGLE_UNIT ( ) SI_UNIT ( $, .RADIAN. ) );
#113 =( NAMED_UNIT ( * ) SI_UNIT ( $, .STERADIAN. ) SOLID_ANGLE_UNIT ( ) );
#114 = APPLICATION_PROTOCOL_DEFINITION ( 'draft international standard', 'automotive_design', 1998, #132 ) ;
#115 = FILL_AREA_STYLE_COLOUR ( '', #10 ) ;
#116 = FILL_AREA_STYLE ('',( #115 ) ) ;
#117 = SURFACE_STYLE_FILL_AREA ( #116 ) ;
#118 = SURFACE_SIDE_STYLE ('',( #117 ) ) ;
#119 = SURFACE_STYLE_USAGE ( .BOTH. , #118 ) ;
#120 = PRESENTATION_STYLE_ASSIGNMENT (( #119 ) ) ;
#121 =( LENGTH_UNIT ( ) NAMED_UNIT ( * ) SI_UNIT ( $, .METRE. ) );
#122 =( CONVERSION_BASED_UNIT ( 'INCH', #37 ) LENGTH_UNIT ( ) NAMED_UNIT ( #142 ) );
#123 =( NAMED_UNIT ( * ) PLANE_ANGLE_UNIT ( ) SI_UNIT ( $, .RADIAN. ) );
#124 =( NAMED_UNIT ( * ) SI_UNIT ( $, .STERADIAN. ) SOLID_ANGLE_UNIT ( ) );
#125 = CARTESIAN_POINT ( 'NONE',  ( 0.0000000000000000000, 0.0000000000000000000, 0.0000000000000000000 ) ) ;
#126 = DIRECTION ( 'NONE',  ( 0.0000000000000000000, 0.0000000000000000000, 1.000000000000000000 ) ) ;
#127 = DIRECTION ( 'NONE',  ( 1.000000000000000000, 0.0000000000000000000, 0.0000000000000000000 ) ) ;
#128 = SHAPE_DEFINITION_REPRESENTATION ( #34, #144 ) ;
#129 = PRODUCT_CONTEXT ( 'NONE', #132, 'mechanical' ) ;
#130 = APPLICATION_PROTOCOL_DEFINITION ( 'draft international standard', 'automotive_design', 1998, #131 ) ;
#131 = APPLICATION_CONTEXT ( 'automotive_design' ) ;
#132 = APPLICATION_CONTEXT ( 'automotive_design' ) ;
#133 = VERTEX_POINT ( 'NONE', #96 ) ;
#134 = ORIENTED_EDGE ( 'NONE', *, *, #4, .F. ) ;
#135 = VERTEX_POINT ( 'NONE', #107 ) ;
#136 = VERTEX_POINT ( 'NONE', #108 ) ;
#137 = VERTEX_POINT ( 'NONE', #109 ) ;
#138 = ORIENTED_EDGE ( 'NONE', *, *, #5, .F. ) ;
#139 =( GEOMETRIC_REPRESENTATION_CONTEXT ( 3 ) GLOBAL_UNCERTAINTY_ASSIGNED_CONTEXT ( ( #143 ) ) GLOBAL_UNIT_ASSIGNED_CONTEXT ( ( #104, #105, #106 ) ) REPRESENTATION_CONTEXT ( 'NONE', 'WORKASPACE' ) );
#140 =( GEOMETRIC_REPRESENTATION_CONTEXT ( 3 ) GLOBAL_UNCERTAINTY_ASSIGNED_CONTEXT ( ( #146 ) ) GLOBAL_UNIT_ASSIGNED_CONTEXT ( ( #111, #112, #113 ) ) REPRESENTATION_CONTEXT ( 'NONE', 'WORKASPACE' ) );
#141 =( GEOMETRIC_REPRESENTATION_CONTEXT ( 3 ) GLOBAL_UNCERTAINTY_ASSIGNED_CONTEXT ( ( #145 ) ) GLOBAL_UNIT_ASSIGNED_CONTEXT ( ( #122, #123, #124 ) ) REPRESENTATION_CONTEXT ( 'NONE', 'WORKASPACE' ) );
#142 = DIMENSIONAL_EXPONENTS ( 1.000000000000000000, 0.0000000000000000000, 0.0000000000000000000, 0.0000000000000000000, 0.0000000000000000000, 0.0000000000000000000, 0.0000000000000000000 ) ;
#143 = UNCERTAINTY_MEASURE_WITH_UNIT (LENGTH_MEASURE( 1.000000000000000100E-005 ), #104, 'distance_accuracy_value', 'NONE');
#144 = ADVANCED_BREP_SHAPE_REPRESENTATION ( 'D125DN45', ( #35, #44 ), #140 ) ;
#145 = UNCERTAINTY_MEASURE_WITH_UNIT (LENGTH_MEASURE( 1.000000000000000100E-005 ), #122, 'distance_accuracy_value', 'NONE');
#146 = UNCERTAINTY_MEASURE_WITH_UNIT (LENGTH_MEASURE( 1.000000000000000100E-005 ), #111, 'distance_accuracy_value', 'NONE');
#147 = PRODUCT_DEFINITION ( 'UNKNOWN', '', #45, #33 ) ;
#148 = DIMENSIONAL_EXPONENTS ( 1.000000000000000000, 0.0000000000000000000, 0.0000000000000000000, 0.0000000000000000000, 0.0000000000000000000, 0.0000000000000000000, 0.0000000000000000000 ) ;
#149 = DIMENSIONAL_EXPONENTS ( 1.000000000000000000, 0.0000000000000000000, 0.0000000000000000000, 0.0000000000000000000, 0.0000000000000000000, 0.0000000000000000000, 0.0000000000000000000 ) ;
ENDSEC;
END-ISO-10303-21;
