ISO-10303-21;
HEADER;
FILE_DESCRIPTION (( 'STEP AP214' ),
    '1' );
FILE_NAME ('D125DN50.step',
    '2012-04-20T20:53:45',
    ( '' ),
    ( '' ),
    'SwSTEP 2.0',
    'SolidWorks 2012',
    '' );
FILE_SCHEMA (( 'AUTOMOTIVE_DESIGN' ));
ENDSEC;

DATA;
#1 = APPLICATION_CONTEXT ( 'automotive_design' ) ;
#2 = STYLED_ITEM ( 'NONE', ( #63 ), #14 ) ;
#3 = FACE_OUTER_BOUND ( 'NONE', #45, .T. ) ;
#4 = AXIS2_PLACEMENT_3D ( 'NONE', #85, #86, #87 ) ;
#5 = FACE_OUTER_BOUND ( 'NONE', #36, .T. ) ;
#6 = CLOSED_SHELL ( 'NONE', ( #128, #127, #138, #126 ) ) ;
#7 = FACE_OUTER_BOUND ( 'NONE', #39, .T. ) ;
#8 = AXIS2_PLACEMENT_3D ( 'NONE', #73, #74, #75 ) ;
#9 = AXIS2_PLACEMENT_3D ( 'NONE', #76, #77, #78 ) ;
#10 = PRESENTATION_LAYER_ASSIGNMENT (  '', '', ( #2 ) ) ;
#11 = MECHANICAL_DESIGN_GEOMETRIC_PRESENTATION_REPRESENTATION (  '', ( #2 ), #147 ) ;
#12 = CYLINDRICAL_SURFACE ( 'NONE', #9, 0.2500000000000000000 ) ;
#13 = LENGTH_MEASURE_WITH_UNIT ( LENGTH_MEASURE( 0.02539999999999999900 ), #64 );
#14 = MANIFOLD_SOLID_BREP ( 'Boss-Extrude1', #6 ) ;
#15 = PRODUCT_DEFINITION_CONTEXT ( 'detailed design', #1, 'design' ) ;
#16 = PRODUCT_DEFINITION_SHAPE ( 'NONE', 'NONE',  #125 ) ;
#17 = EDGE_LOOP ( 'NONE', ( #54, #55 ) ) ;
#18 = VERTEX_POINT ( 'NONE', #68 ) ;
#19 = PRESENTATION_LAYER_ASSIGNMENT (  '', '', ( #34 ) ) ;
#20 = LENGTH_MEASURE_WITH_UNIT ( LENGTH_MEASURE( 0.02539999999999999900 ), #104 );
#21 = FACE_OUTER_BOUND ( 'NONE', #17, .T. ) ;
#22 = CYLINDRICAL_SURFACE ( 'NONE', #33, 0.2500000000000000000 ) ;
#23 = AXIS2_PLACEMENT_3D ( 'NONE', #88, #89, #90 ) ;
#24 = MECHANICAL_DESIGN_GEOMETRIC_PRESENTATION_REPRESENTATION (  '', ( #34 ), #149 ) ;
#25 = LENGTH_MEASURE_WITH_UNIT ( LENGTH_MEASURE( 0.02539999999999999900 ), #115 );
#26 = AXIS2_PLACEMENT_3D ( 'NONE', #91, #95, #96 ) ;
#27 = AXIS2_PLACEMENT_3D ( 'NONE', #98, #99, #100 ) ;
#28 = AXIS2_PLACEMENT_3D ( 'NONE', #119, #120, #121 ) ;
#29 = PRODUCT_DEFINITION_FORMATION_WITH_SPECIFIED_SOURCE ( 'ANY', '', #146, .NOT_KNOWN. ) ;
#30 = VECTOR ( 'NONE', #84, 39.37007874015748100 ) ;
#31 = AXIS2_PLACEMENT_3D ( 'NONE', #101, #102, #103 ) ;
#32 = VECTOR ( 'NONE', #94, 39.37007874015748100 ) ;
#33 = AXIS2_PLACEMENT_3D ( 'NONE', #79, #80, #81 ) ;
#34 = STYLED_ITEM ( 'NONE', ( #114 ), #43 ) ;
#35 = VERTEX_POINT ( 'NONE', #69 ) ;
#36 = EDGE_LOOP ( 'NONE', ( #56, #57 ) ) ;
#37 = VERTEX_POINT ( 'NONE', #70 ) ;
#38 = VERTEX_POINT ( 'NONE', #71 ) ;
#39 = EDGE_LOOP ( 'NONE', ( #46, #48, #47, #49 ) ) ;
#40 = APPLICATION_CONTEXT ( 'automotive_design' ) ;
#41 = UNCERTAINTY_MEASURE_WITH_UNIT (LENGTH_MEASURE( 1.000000000000000100E-005 ), #116, 'distance_accuracy_value', 'NONE');
#42 = UNCERTAINTY_MEASURE_WITH_UNIT (LENGTH_MEASURE( 1.000000000000000100E-005 ), #105, 'distance_accuracy_value', 'NONE');
#43 = ADVANCED_BREP_SHAPE_REPRESENTATION ( 'D125DN50', ( #14, #28 ), #148 ) ;
#44 = UNCERTAINTY_MEASURE_WITH_UNIT (LENGTH_MEASURE( 1.000000000000000100E-005 ), #65, 'distance_accuracy_value', 'NONE');
#45 = EDGE_LOOP ( 'NONE', ( #50, #52, #51, #53 ) ) ;
#46 = ORIENTED_EDGE ( 'NONE', *, *, #130, .F. ) ;
#47 = ORIENTED_EDGE ( 'NONE', *, *, #131, .T. ) ;
#48 = ORIENTED_EDGE ( 'NONE', *, *, #129, .T. ) ;
#49 = ORIENTED_EDGE ( 'NONE', *, *, #134, .F. ) ;
#50 = ORIENTED_EDGE ( 'NONE', *, *, #129, .F. ) ;
#51 = ORIENTED_EDGE ( 'NONE', *, *, #134, .T. ) ;
#52 = ORIENTED_EDGE ( 'NONE', *, *, #137, .F. ) ;
#53 = ORIENTED_EDGE ( 'NONE', *, *, #140, .T. ) ;
#54 = ORIENTED_EDGE ( 'NONE', *, *, #137, .T. ) ;
#55 = ORIENTED_EDGE ( 'NONE', *, *, #130, .T. ) ;
#56 = ORIENTED_EDGE ( 'NONE', *, *, #140, .F. ) ;
#57 = ORIENTED_EDGE ( 'NONE', *, *, #131, .F. ) ;
#58 = FILL_AREA_STYLE_COLOUR ( '', #142 ) ;
#59 = FILL_AREA_STYLE ('',( #58 ) ) ;
#60 = SURFACE_STYLE_FILL_AREA ( #59 ) ;
#61 = SURFACE_SIDE_STYLE ('',( #60 ) ) ;
#62 = SURFACE_STYLE_USAGE ( .BOTH. , #61 ) ;
#63 = PRESENTATION_STYLE_ASSIGNMENT (( #62 ) ) ;
#64 =( LENGTH_UNIT ( ) NAMED_UNIT ( * ) SI_UNIT ( $, .METRE. ) );
#65 =( CONVERSION_BASED_UNIT ( 'INCH', #13 ) LENGTH_UNIT ( ) NAMED_UNIT ( #144 ) );
#66 =( NAMED_UNIT ( * ) PLANE_ANGLE_UNIT ( ) SI_UNIT ( $, .RADIAN. ) );
#67 =( NAMED_UNIT ( * ) SI_UNIT ( $, .STERADIAN. ) SOLID_ANGLE_UNIT ( ) );
#68 = CARTESIAN_POINT ( 'NONE',  ( 3.061616997868383000E-017, 0.0000000000000000000, 0.2500000000000000000 ) ) ;
#69 = CARTESIAN_POINT ( 'NONE',  ( 0.0000000000000000000, 0.0000000000000000000, -0.2500000000000000000 ) ) ;
#70 = CARTESIAN_POINT ( 'NONE',  ( 3.061616997868383000E-017, 0.1250000000000000000, 0.2500000000000000000 ) ) ;
#71 = CARTESIAN_POINT ( 'NONE',  ( 0.0000000000000000000, 0.1250000000000000000, -0.2500000000000000000 ) ) ;
#72 = PLANE ( 'NONE',  #8 ) ;
#73 = CARTESIAN_POINT ( 'NONE',  ( 0.0000000000000000000, 0.0000000000000000000, 0.0000000000000000000 ) ) ;
#74 = DIRECTION ( 'NONE',  ( 0.0000000000000000000, 1.000000000000000000, 0.0000000000000000000 ) ) ;
#75 = DIRECTION ( 'NONE',  ( 0.0000000000000000000, -0.0000000000000000000, 1.000000000000000000 ) ) ;
#76 = CARTESIAN_POINT ( 'NONE',  ( 0.0000000000000000000, 0.1250000000000000000, 0.0000000000000000000 ) ) ;
#77 = DIRECTION ( 'NONE',  ( -0.0000000000000000000, -1.000000000000000000, -0.0000000000000000000 ) ) ;
#78 = DIRECTION ( 'NONE',  ( 0.0000000000000000000, 0.0000000000000000000, -1.000000000000000000 ) ) ;
#79 = CARTESIAN_POINT ( 'NONE',  ( 0.0000000000000000000, 0.1250000000000000000, 0.0000000000000000000 ) ) ;
#80 = DIRECTION ( 'NONE',  ( -0.0000000000000000000, -1.000000000000000000, -0.0000000000000000000 ) ) ;
#81 = DIRECTION ( 'NONE',  ( 0.0000000000000000000, 0.0000000000000000000, -1.000000000000000000 ) ) ;
#82 = LINE ( 'NONE', #83, #30 ) ;
#83 = CARTESIAN_POINT ( 'NONE',  ( 3.061616997868383000E-017, 0.1250000000000000000, 0.2500000000000000000 ) ) ;
#84 = DIRECTION ( 'NONE',  ( -0.0000000000000000000, -1.000000000000000000, -0.0000000000000000000 ) ) ;
#85 = CARTESIAN_POINT ( 'NONE',  ( 0.0000000000000000000, 0.1250000000000000000, 0.0000000000000000000 ) ) ;
#86 = DIRECTION ( 'NONE',  ( 0.0000000000000000000, 1.000000000000000000, 0.0000000000000000000 ) ) ;
#87 = DIRECTION ( 'NONE',  ( 0.0000000000000000000, 0.0000000000000000000, 1.000000000000000000 ) ) ;
#88 = CARTESIAN_POINT ( 'NONE',  ( 0.0000000000000000000, 0.0000000000000000000, 0.0000000000000000000 ) ) ;
#89 = DIRECTION ( 'NONE',  ( 0.0000000000000000000, 1.000000000000000000, 0.0000000000000000000 ) ) ;
#90 = DIRECTION ( 'NONE',  ( 0.0000000000000000000, 0.0000000000000000000, 1.000000000000000000 ) ) ;
#91 = CARTESIAN_POINT ( 'NONE',  ( 0.0000000000000000000, 0.1250000000000000000, 0.0000000000000000000 ) ) ;
#92 = LINE ( 'NONE', #93, #32 ) ;
#93 = CARTESIAN_POINT ( 'NONE',  ( 0.0000000000000000000, 0.1250000000000000000, -0.2500000000000000000 ) ) ;
#94 = DIRECTION ( 'NONE',  ( -0.0000000000000000000, -1.000000000000000000, -0.0000000000000000000 ) ) ;
#95 = DIRECTION ( 'NONE',  ( 0.0000000000000000000, 1.000000000000000000, 0.0000000000000000000 ) ) ;
#96 = DIRECTION ( 'NONE',  ( 0.0000000000000000000, 0.0000000000000000000, 1.000000000000000000 ) ) ;
#97 = PLANE ( 'NONE',  #27 ) ;
#98 = CARTESIAN_POINT ( 'NONE',  ( 0.0000000000000000000, 0.1250000000000000000, 0.0000000000000000000 ) ) ;
#99 = DIRECTION ( 'NONE',  ( 0.0000000000000000000, 1.000000000000000000, 0.0000000000000000000 ) ) ;
#100 = DIRECTION ( 'NONE',  ( 0.0000000000000000000, -0.0000000000000000000, 1.000000000000000000 ) ) ;
#101 = CARTESIAN_POINT ( 'NONE',  ( 0.0000000000000000000, 0.0000000000000000000, 0.0000000000000000000 ) ) ;
#102 = DIRECTION ( 'NONE',  ( 0.0000000000000000000, 1.000000000000000000, 0.0000000000000000000 ) ) ;
#103 = DIRECTION ( 'NONE',  ( 0.0000000000000000000, 0.0000000000000000000, 1.000000000000000000 ) ) ;
#104 =( LENGTH_UNIT ( ) NAMED_UNIT ( * ) SI_UNIT ( $, .METRE. ) );
#105 =( CONVERSION_BASED_UNIT ( 'INCH', #20 ) LENGTH_UNIT ( ) NAMED_UNIT ( #145 ) );
#106 =( NAMED_UNIT ( * ) PLANE_ANGLE_UNIT ( ) SI_UNIT ( $, .RADIAN. ) );
#107 =( NAMED_UNIT ( * ) SI_UNIT ( $, .STERADIAN. ) SOLID_ANGLE_UNIT ( ) );
#108 = APPLICATION_PROTOCOL_DEFINITION ( 'draft international standard', 'automotive_design', 1998, #40 ) ;
#109 = FILL_AREA_STYLE_COLOUR ( '', #136 ) ;
#110 = FILL_AREA_STYLE ('',( #109 ) ) ;
#111 = SURFACE_STYLE_FILL_AREA ( #110 ) ;
#112 = SURFACE_SIDE_STYLE ('',( #111 ) ) ;
#113 = SURFACE_STYLE_USAGE ( .BOTH. , #112 ) ;
#114 = PRESENTATION_STYLE_ASSIGNMENT (( #113 ) ) ;
#115 =( LENGTH_UNIT ( ) NAMED_UNIT ( * ) SI_UNIT ( $, .METRE. ) );
#116 =( CONVERSION_BASED_UNIT ( 'INCH', #25 ) LENGTH_UNIT ( ) NAMED_UNIT ( #143 ) );
#117 =( NAMED_UNIT ( * ) PLANE_ANGLE_UNIT ( ) SI_UNIT ( $, .RADIAN. ) );
#118 =( NAMED_UNIT ( * ) SI_UNIT ( $, .STERADIAN. ) SOLID_ANGLE_UNIT ( ) );
#119 = CARTESIAN_POINT ( 'NONE',  ( 0.0000000000000000000, 0.0000000000000000000, 0.0000000000000000000 ) ) ;
#120 = DIRECTION ( 'NONE',  ( 0.0000000000000000000, 0.0000000000000000000, 1.000000000000000000 ) ) ;
#121 = DIRECTION ( 'NONE',  ( 1.000000000000000000, 0.0000000000000000000, 0.0000000000000000000 ) ) ;
#122 = SHAPE_DEFINITION_REPRESENTATION ( #16, #43 ) ;
#123 = PRODUCT_CONTEXT ( 'NONE', #40, 'mechanical' ) ;
#124 = APPLICATION_PROTOCOL_DEFINITION ( 'draft international standard', 'automotive_design', 1998, #1 ) ;
#125 = PRODUCT_DEFINITION ( 'UNKNOWN', '', #29, #15 ) ;
#126 = ADVANCED_FACE ( 'NONE', ( #5 ), #72, .F. ) ;
#127 = ADVANCED_FACE ( 'NONE', ( #3 ), #12, .T. ) ;
#128 = ADVANCED_FACE ( 'NONE', ( #7 ), #22, .T. ) ;
#129 = EDGE_CURVE ( 'NONE', #37, #18, #82, .T. ) ;
#130 = EDGE_CURVE ( 'NONE', #37, #38, #139, .T. ) ;
#131 = EDGE_CURVE ( 'NONE', #18, #35, #135, .T. ) ;
#132 = CIRCLE ( 'NONE', #26, 0.2500000000000000000 ) ;
#133 = CIRCLE ( 'NONE', #31, 0.2500000000000000000 ) ;
#134 = EDGE_CURVE ( 'NONE', #38, #35, #92, .T. ) ;
#135 = CIRCLE ( 'NONE', #23, 0.2500000000000000000 ) ;
#136 = COLOUR_RGB ( '',0.5686274509803921400, 0.5686274509803921400, 0.5882352941176470800 ) ;
#137 = EDGE_CURVE ( 'NONE', #38, #37, #132, .T. ) ;
#138 = ADVANCED_FACE ( 'NONE', ( #21 ), #97, .T. ) ;
#139 = CIRCLE ( 'NONE', #4, 0.2500000000000000000 ) ;
#140 = EDGE_CURVE ( 'NONE', #35, #18, #133, .T. ) ;
#141 = PRODUCT_RELATED_PRODUCT_CATEGORY ( 'part', '', ( #146 ) ) ;
#142 = COLOUR_RGB ( '',0.5686274509803921400, 0.5686274509803921400, 0.5882352941176470800 ) ;
#143 = DIMENSIONAL_EXPONENTS ( 1.000000000000000000, 0.0000000000000000000, 0.0000000000000000000, 0.0000000000000000000, 0.0000000000000000000, 0.0000000000000000000, 0.0000000000000000000 ) ;
#144 = DIMENSIONAL_EXPONENTS ( 1.000000000000000000, 0.0000000000000000000, 0.0000000000000000000, 0.0000000000000000000, 0.0000000000000000000, 0.0000000000000000000, 0.0000000000000000000 ) ;
#145 = DIMENSIONAL_EXPONENTS ( 1.000000000000000000, 0.0000000000000000000, 0.0000000000000000000, 0.0000000000000000000, 0.0000000000000000000, 0.0000000000000000000, 0.0000000000000000000 ) ;
#146 = PRODUCT ( 'D125DN50', 'D125DN50', '', ( #123 ) ) ;
#147 =( GEOMETRIC_REPRESENTATION_CONTEXT ( 3 ) GLOBAL_UNCERTAINTY_ASSIGNED_CONTEXT ( ( #44 ) ) GLOBAL_UNIT_ASSIGNED_CONTEXT ( ( #65, #66, #67 ) ) REPRESENTATION_CONTEXT ( 'NONE', 'WORKASPACE' ) );
#148 =( GEOMETRIC_REPRESENTATION_CONTEXT ( 3 ) GLOBAL_UNCERTAINTY_ASSIGNED_CONTEXT ( ( #42 ) ) GLOBAL_UNIT_ASSIGNED_CONTEXT ( ( #105, #106, #107 ) ) REPRESENTATION_CONTEXT ( 'NONE', 'WORKASPACE' ) );
#149 =( GEOMETRIC_REPRESENTATION_CONTEXT ( 3 ) GLOBAL_UNCERTAINTY_ASSIGNED_CONTEXT ( ( #41 ) ) GLOBAL_UNIT_ASSIGNED_CONTEXT ( ( #116, #117, #118 ) ) REPRESENTATION_CONTEXT ( 'NONE', 'WORKASPACE' ) );
ENDSEC;
END-ISO-10303-21;
