ISO-10303-21;
HEADER;
FILE_DESCRIPTION (( 'STEP AP214' ),
    '1' );
FILE_NAME ('D200F-F-BLUE.step',
    '2012-04-20T20:54:46',
    ( '' ),
    ( '' ),
    'SwSTEP 2.0',
    'SolidWorks 2012',
    '' );
FILE_SCHEMA (( 'AUTOMOTIVE_DESIGN' ));
ENDSEC;

DATA;
#1 = MECHANICAL_DESIGN_GEOMETRIC_PRESENTATION_REPRESENTATION (  '', ( #4 ), #147 ) ;
#2 = PRESENTATION_LAYER_ASSIGNMENT (  '', '', ( #4 ) ) ;
#3 = CLOSED_SHELL ( 'NONE', ( #134, #135, #136, #137 ) ) ;
#4 = STYLED_ITEM ( 'NONE', ( #58 ), #122 ) ;
#5 = LENGTH_MEASURE_WITH_UNIT ( LENGTH_MEASURE( 0.02539999999999999900 ), #59 );
#6 = AXIS2_PLACEMENT_3D ( 'NONE', #63, #64, #65 ) ;
#7 = FACE_OUTER_BOUND ( 'NONE', #30, .T. ) ;
#8 = AXIS2_PLACEMENT_3D ( 'NONE', #78, #79, #80 ) ;
#9 = AXIS2_PLACEMENT_3D ( 'NONE', #66, #70, #71 ) ;
#10 = VECTOR ( 'NONE', #69, 39.37007874015748100 ) ;
#11 = AXIS2_PLACEMENT_3D ( 'NONE', #72, #76, #77 ) ;
#12 = VECTOR ( 'NONE', #75, 39.37007874015748100 ) ;
#13 = AXIS2_PLACEMENT_3D ( 'NONE', #81, #82, #83 ) ;
#14 = FACE_OUTER_BOUND ( 'NONE', #29, .T. ) ;
#15 = CYLINDRICAL_SURFACE ( 'NONE', #13, 0.3750000000000001100 ) ;
#16 = FACE_OUTER_BOUND ( 'NONE', #31, .T. ) ;
#17 = AXIS2_PLACEMENT_3D ( 'NONE', #84, #85, #86 ) ;
#18 = CYLINDRICAL_SURFACE ( 'NONE', #17, 0.3750000000000001100 ) ;
#19 = FACE_OUTER_BOUND ( 'NONE', #32, .T. ) ;
#20 = AXIS2_PLACEMENT_3D ( 'NONE', #88, #89, #90 ) ;
#21 = LENGTH_MEASURE_WITH_UNIT ( LENGTH_MEASURE( 0.02539999999999999900 ), #95 );
#22 = AXIS2_PLACEMENT_3D ( 'NONE', #92, #93, #94 ) ;
#23 = STYLED_ITEM ( 'NONE', ( #105 ), #126 ) ;
#24 = PRESENTATION_LAYER_ASSIGNMENT (  '', '', ( #23 ) ) ;
#25 = MECHANICAL_DESIGN_GEOMETRIC_PRESENTATION_REPRESENTATION (  '', ( #23 ), #149 ) ;
#26 = LENGTH_MEASURE_WITH_UNIT ( LENGTH_MEASURE( 0.02539999999999999900 ), #106 );
#27 = AXIS2_PLACEMENT_3D ( 'NONE', #110, #111, #112 ) ;
#28 = PRODUCT_DEFINITION_FORMATION_WITH_SPECIFIED_SOURCE ( 'ANY', '', #117, .NOT_KNOWN. ) ;
#29 = EDGE_LOOP ( 'NONE', ( #37, #39, #38, #40 ) ) ;
#30 = EDGE_LOOP ( 'NONE', ( #33, #35, #34, #36 ) ) ;
#31 = EDGE_LOOP ( 'NONE', ( #41, #42 ) ) ;
#32 = EDGE_LOOP ( 'NONE', ( #43, #44 ) ) ;
#33 = ORIENTED_EDGE ( 'NONE', *, *, #127, .F. ) ;
#34 = ORIENTED_EDGE ( 'NONE', *, *, #130, .T. ) ;
#35 = ORIENTED_EDGE ( 'NONE', *, *, #129, .T. ) ;
#36 = ORIENTED_EDGE ( 'NONE', *, *, #131, .F. ) ;
#37 = ORIENTED_EDGE ( 'NONE', *, *, #129, .F. ) ;
#38 = ORIENTED_EDGE ( 'NONE', *, *, #131, .T. ) ;
#39 = ORIENTED_EDGE ( 'NONE', *, *, #132, .F. ) ;
#40 = ORIENTED_EDGE ( 'NONE', *, *, #133, .T. ) ;
#41 = ORIENTED_EDGE ( 'NONE', *, *, #132, .T. ) ;
#42 = ORIENTED_EDGE ( 'NONE', *, *, #127, .T. ) ;
#43 = ORIENTED_EDGE ( 'NONE', *, *, #133, .F. ) ;
#44 = ORIENTED_EDGE ( 'NONE', *, *, #130, .F. ) ;
#45 = VERTEX_POINT ( 'NONE', #49 ) ;
#46 = VERTEX_POINT ( 'NONE', #50 ) ;
#47 = VERTEX_POINT ( 'NONE', #51 ) ;
#48 = VERTEX_POINT ( 'NONE', #52 ) ;
#49 = CARTESIAN_POINT ( 'NONE',  ( -0.3750000000000001100, 0.0000000000000000000, 0.0000000000000000000 ) ) ;
#50 = CARTESIAN_POINT ( 'NONE',  ( -0.3750000000000001100, 0.0000000000000000000, 0.2000000000000000100 ) ) ;
#51 = CARTESIAN_POINT ( 'NONE',  ( 0.3750000000000001100, 4.592425496802576100E-017, 0.0000000000000000000 ) ) ;
#52 = CARTESIAN_POINT ( 'NONE',  ( 0.3750000000000001100, 4.592425496802576100E-017, 0.2000000000000000100 ) ) ;
#53 = FILL_AREA_STYLE_COLOUR ( '', #140 ) ;
#54 = FILL_AREA_STYLE ('',( #53 ) ) ;
#55 = SURFACE_STYLE_FILL_AREA ( #54 ) ;
#56 = SURFACE_SIDE_STYLE ('',( #55 ) ) ;
#57 = SURFACE_STYLE_USAGE ( .BOTH. , #56 ) ;
#58 = PRESENTATION_STYLE_ASSIGNMENT (( #57 ) ) ;
#59 =( LENGTH_UNIT ( ) NAMED_UNIT ( * ) SI_UNIT ( $, .METRE. ) );
#60 =( CONVERSION_BASED_UNIT ( 'INCH', #5 ) LENGTH_UNIT ( ) NAMED_UNIT ( #116 ) );
#61 =( NAMED_UNIT ( * ) PLANE_ANGLE_UNIT ( ) SI_UNIT ( $, .RADIAN. ) );
#62 =( NAMED_UNIT ( * ) SI_UNIT ( $, .STERADIAN. ) SOLID_ANGLE_UNIT ( ) );
#63 = CARTESIAN_POINT ( 'NONE',  ( 0.0000000000000000000, 0.0000000000000000000, 0.2000000000000000100 ) ) ;
#64 = DIRECTION ( 'NONE',  ( 0.0000000000000000000, 0.0000000000000000000, 1.000000000000000000 ) ) ;
#65 = DIRECTION ( 'NONE',  ( 1.000000000000000000, 0.0000000000000000000, 0.0000000000000000000 ) ) ;
#66 = CARTESIAN_POINT ( 'NONE',  ( 0.0000000000000000000, 0.0000000000000000000, 0.0000000000000000000 ) ) ;
#67 = LINE ( 'NONE', #68, #10 ) ;
#68 = CARTESIAN_POINT ( 'NONE',  ( 0.3750000000000001100, 4.592425496802576100E-017, 0.2000000000000000100 ) ) ;
#69 = DIRECTION ( 'NONE',  ( -0.0000000000000000000, -0.0000000000000000000, -1.000000000000000000 ) ) ;
#70 = DIRECTION ( 'NONE',  ( 0.0000000000000000000, 0.0000000000000000000, 1.000000000000000000 ) ) ;
#71 = DIRECTION ( 'NONE',  ( 1.000000000000000000, 0.0000000000000000000, 0.0000000000000000000 ) ) ;
#72 = CARTESIAN_POINT ( 'NONE',  ( 0.0000000000000000000, 0.0000000000000000000, 0.2000000000000000100 ) ) ;
#73 = LINE ( 'NONE', #74, #12 ) ;
#74 = CARTESIAN_POINT ( 'NONE',  ( -0.3750000000000001100, 0.0000000000000000000, 0.2000000000000000100 ) ) ;
#75 = DIRECTION ( 'NONE',  ( -0.0000000000000000000, -0.0000000000000000000, -1.000000000000000000 ) ) ;
#76 = DIRECTION ( 'NONE',  ( 0.0000000000000000000, 0.0000000000000000000, 1.000000000000000000 ) ) ;
#77 = DIRECTION ( 'NONE',  ( 1.000000000000000000, 0.0000000000000000000, 0.0000000000000000000 ) ) ;
#78 = CARTESIAN_POINT ( 'NONE',  ( 0.0000000000000000000, 0.0000000000000000000, 0.0000000000000000000 ) ) ;
#79 = DIRECTION ( 'NONE',  ( 0.0000000000000000000, 0.0000000000000000000, 1.000000000000000000 ) ) ;
#80 = DIRECTION ( 'NONE',  ( 1.000000000000000000, 0.0000000000000000000, 0.0000000000000000000 ) ) ;
#81 = CARTESIAN_POINT ( 'NONE',  ( 0.0000000000000000000, 0.0000000000000000000, 0.2000000000000000100 ) ) ;
#82 = DIRECTION ( 'NONE',  ( -0.0000000000000000000, -0.0000000000000000000, -1.000000000000000000 ) ) ;
#83 = DIRECTION ( 'NONE',  ( -1.000000000000000000, 0.0000000000000000000, 0.0000000000000000000 ) ) ;
#84 = CARTESIAN_POINT ( 'NONE',  ( 0.0000000000000000000, 0.0000000000000000000, 0.2000000000000000100 ) ) ;
#85 = DIRECTION ( 'NONE',  ( -0.0000000000000000000, -0.0000000000000000000, -1.000000000000000000 ) ) ;
#86 = DIRECTION ( 'NONE',  ( -1.000000000000000000, 0.0000000000000000000, 0.0000000000000000000 ) ) ;
#87 = PLANE ( 'NONE',  #20 ) ;
#88 = CARTESIAN_POINT ( 'NONE',  ( 0.0000000000000000000, 0.0000000000000000000, 0.2000000000000000100 ) ) ;
#89 = DIRECTION ( 'NONE',  ( 0.0000000000000000000, 0.0000000000000000000, 1.000000000000000000 ) ) ;
#90 = DIRECTION ( 'NONE',  ( 1.000000000000000000, 0.0000000000000000000, -0.0000000000000000000 ) ) ;
#91 = PLANE ( 'NONE',  #22 ) ;
#92 = CARTESIAN_POINT ( 'NONE',  ( 0.0000000000000000000, 0.0000000000000000000, 0.0000000000000000000 ) ) ;
#93 = DIRECTION ( 'NONE',  ( 0.0000000000000000000, 0.0000000000000000000, 1.000000000000000000 ) ) ;
#94 = DIRECTION ( 'NONE',  ( 1.000000000000000000, 0.0000000000000000000, -0.0000000000000000000 ) ) ;
#95 =( LENGTH_UNIT ( ) NAMED_UNIT ( * ) SI_UNIT ( $, .METRE. ) );
#96 =( CONVERSION_BASED_UNIT ( 'INCH', #21 ) LENGTH_UNIT ( ) NAMED_UNIT ( #119 ) );
#97 =( NAMED_UNIT ( * ) PLANE_ANGLE_UNIT ( ) SI_UNIT ( $, .RADIAN. ) );
#98 =( NAMED_UNIT ( * ) SI_UNIT ( $, .STERADIAN. ) SOLID_ANGLE_UNIT ( ) );
#99 = SHAPE_DEFINITION_REPRESENTATION ( #120, #126 ) ;
#100 = FILL_AREA_STYLE_COLOUR ( '', #142 ) ;
#101 = FILL_AREA_STYLE ('',( #100 ) ) ;
#102 = SURFACE_STYLE_FILL_AREA ( #101 ) ;
#103 = SURFACE_SIDE_STYLE ('',( #102 ) ) ;
#104 = SURFACE_STYLE_USAGE ( .BOTH. , #103 ) ;
#105 = PRESENTATION_STYLE_ASSIGNMENT (( #104 ) ) ;
#106 =( LENGTH_UNIT ( ) NAMED_UNIT ( * ) SI_UNIT ( $, .METRE. ) );
#107 =( CONVERSION_BASED_UNIT ( 'INCH', #26 ) LENGTH_UNIT ( ) NAMED_UNIT ( #118 ) );
#108 =( NAMED_UNIT ( * ) PLANE_ANGLE_UNIT ( ) SI_UNIT ( $, .RADIAN. ) );
#109 =( NAMED_UNIT ( * ) SI_UNIT ( $, .STERADIAN. ) SOLID_ANGLE_UNIT ( ) );
#110 = CARTESIAN_POINT ( 'NONE',  ( 0.0000000000000000000, 0.0000000000000000000, 0.0000000000000000000 ) ) ;
#111 = DIRECTION ( 'NONE',  ( 0.0000000000000000000, 0.0000000000000000000, 1.000000000000000000 ) ) ;
#112 = DIRECTION ( 'NONE',  ( 1.000000000000000000, 0.0000000000000000000, 0.0000000000000000000 ) ) ;
#113 = APPLICATION_PROTOCOL_DEFINITION ( 'draft international standard', 'automotive_design', 1998, #145 ) ;
#114 = PRODUCT_CONTEXT ( 'NONE', #145, 'mechanical' ) ;
#115 = APPLICATION_PROTOCOL_DEFINITION ( 'draft international standard', 'automotive_design', 1998, #146 ) ;
#116 = DIMENSIONAL_EXPONENTS ( 1.000000000000000000, 0.0000000000000000000, 0.0000000000000000000, 0.0000000000000000000, 0.0000000000000000000, 0.0000000000000000000, 0.0000000000000000000 ) ;
#117 = PRODUCT ( 'D200F-F-BLUE', 'D200F-F-BLUE', '', ( #114 ) ) ;
#118 = DIMENSIONAL_EXPONENTS ( 1.000000000000000000, 0.0000000000000000000, 0.0000000000000000000, 0.0000000000000000000, 0.0000000000000000000, 0.0000000000000000000, 0.0000000000000000000 ) ;
#119 = DIMENSIONAL_EXPONENTS ( 1.000000000000000000, 0.0000000000000000000, 0.0000000000000000000, 0.0000000000000000000, 0.0000000000000000000, 0.0000000000000000000, 0.0000000000000000000 ) ;
#120 = PRODUCT_DEFINITION_SHAPE ( 'NONE', 'NONE',  #143 ) ;
#121 = PRODUCT_DEFINITION_CONTEXT ( 'detailed design', #146, 'design' ) ;
#122 = MANIFOLD_SOLID_BREP ( 'Boss-Extrude1', #3 ) ;
#123 = UNCERTAINTY_MEASURE_WITH_UNIT (LENGTH_MEASURE( 1.000000000000000100E-005 ), #60, 'distance_accuracy_value', 'NONE');
#124 = UNCERTAINTY_MEASURE_WITH_UNIT (LENGTH_MEASURE( 1.000000000000000100E-005 ), #107, 'distance_accuracy_value', 'NONE');
#125 = UNCERTAINTY_MEASURE_WITH_UNIT (LENGTH_MEASURE( 1.000000000000000100E-005 ), #96, 'distance_accuracy_value', 'NONE');
#126 = ADVANCED_BREP_SHAPE_REPRESENTATION ( 'D200F-F-BLUE', ( #122, #27 ), #148 ) ;
#127 = EDGE_CURVE ( 'NONE', #48, #46, #128, .T. ) ;
#128 = CIRCLE ( 'NONE', #6, 0.3750000000000001100 ) ;
#129 = EDGE_CURVE ( 'NONE', #48, #47, #67, .T. ) ;
#130 = EDGE_CURVE ( 'NONE', #47, #45, #138, .T. ) ;
#131 = EDGE_CURVE ( 'NONE', #46, #45, #73, .T. ) ;
#132 = EDGE_CURVE ( 'NONE', #46, #48, #141, .T. ) ;
#133 = EDGE_CURVE ( 'NONE', #45, #47, #139, .T. ) ;
#134 = ADVANCED_FACE ( 'NONE', ( #7 ), #15, .T. ) ;
#135 = ADVANCED_FACE ( 'NONE', ( #14 ), #18, .T. ) ;
#136 = ADVANCED_FACE ( 'NONE', ( #16 ), #87, .T. ) ;
#137 = ADVANCED_FACE ( 'NONE', ( #19 ), #91, .F. ) ;
#138 = CIRCLE ( 'NONE', #9, 0.3750000000000001100 ) ;
#139 = CIRCLE ( 'NONE', #8, 0.3750000000000001100 ) ;
#140 = COLOUR_RGB ( '',0.0000000000000000000, 0.07450980392156862600, 0.1529411764705882500 ) ;
#141 = CIRCLE ( 'NONE', #11, 0.3750000000000001100 ) ;
#142 = COLOUR_RGB ( '',0.0000000000000000000, 0.07450980392156862600, 0.1529411764705882500 ) ;
#143 = PRODUCT_DEFINITION ( 'UNKNOWN', '', #28, #121 ) ;
#144 = PRODUCT_RELATED_PRODUCT_CATEGORY ( 'part', '', ( #117 ) ) ;
#145 = APPLICATION_CONTEXT ( 'automotive_design' ) ;
#146 = APPLICATION_CONTEXT ( 'automotive_design' ) ;
#147 =( GEOMETRIC_REPRESENTATION_CONTEXT ( 3 ) GLOBAL_UNCERTAINTY_ASSIGNED_CONTEXT ( ( #123 ) ) GLOBAL_UNIT_ASSIGNED_CONTEXT ( ( #60, #61, #62 ) ) REPRESENTATION_CONTEXT ( 'NONE', 'WORKASPACE' ) );
#148 =( GEOMETRIC_REPRESENTATION_CONTEXT ( 3 ) GLOBAL_UNCERTAINTY_ASSIGNED_CONTEXT ( ( #125 ) ) GLOBAL_UNIT_ASSIGNED_CONTEXT ( ( #96, #97, #98 ) ) REPRESENTATION_CONTEXT ( 'NONE', 'WORKASPACE' ) );
#149 =( GEOMETRIC_REPRESENTATION_CONTEXT ( 3 ) GLOBAL_UNCERTAINTY_ASSIGNED_CONTEXT ( ( #124 ) ) GLOBAL_UNIT_ASSIGNED_CONTEXT ( ( #107, #108, #109 ) ) REPRESENTATION_CONTEXT ( 'NONE', 'WORKASPACE' ) );
ENDSEC;
END-ISO-10303-21;
