ISO-10303-21;
HEADER;
FILE_DESCRIPTION (( 'STEP AP214' ),
    '1' );
FILE_NAME ('D250D.step',
    '2012-04-20T20:55:36',
    ( '' ),
    ( '' ),
    'SwSTEP 2.0',
    'SolidWorks 2012',
    '' );
FILE_SCHEMA (( 'AUTOMOTIVE_DESIGN' ));
ENDSEC;

DATA;
#1 = DIRECTION ( 'NONE',  ( 0.0000000000000000000, 0.0000000000000000000, 1.000000000000000000 ) ) ;
#2 = CARTESIAN_POINT ( 'NONE',  ( 0.0000000000000000000, 0.0000000000000000000, 0.0000000000000000000 ) ) ;
#3 = DIRECTION ( 'NONE',  ( 0.0000000000000000000, 1.000000000000000000, 0.0000000000000000000 ) ) ;
#4 = DIRECTION ( 'NONE',  ( 0.0000000000000000000, 0.0000000000000000000, 1.000000000000000000 ) ) ;
#5 = CARTESIAN_POINT ( 'NONE',  ( 0.0000000000000000000, 0.2500000000000000000, 0.0000000000000000000 ) ) ;
#6 = LINE ( 'NONE', #7, #105 ) ;
#7 = CARTESIAN_POINT ( 'NONE',  ( 0.0000000000000000000, 0.2500000000000000000, -0.2500000000000000000 ) ) ;
#8 = DIRECTION ( 'NONE',  ( -0.0000000000000000000, -1.000000000000000000, -0.0000000000000000000 ) ) ;
#9 = DIRECTION ( 'NONE',  ( 0.0000000000000000000, 1.000000000000000000, 0.0000000000000000000 ) ) ;
#10 = DIRECTION ( 'NONE',  ( 0.0000000000000000000, 0.0000000000000000000, 1.000000000000000000 ) ) ;
#11 = CARTESIAN_POINT ( 'NONE',  ( 0.0000000000000000000, 0.2500000000000000000, 0.0000000000000000000 ) ) ;
#12 = DIRECTION ( 'NONE',  ( -0.0000000000000000000, -1.000000000000000000, -0.0000000000000000000 ) ) ;
#13 = DIRECTION ( 'NONE',  ( 0.0000000000000000000, 0.0000000000000000000, -1.000000000000000000 ) ) ;
#14 = PLANE ( 'NONE',  #21 ) ;
#15 = CARTESIAN_POINT ( 'NONE',  ( 0.0000000000000000000, 0.2500000000000000000, 0.0000000000000000000 ) ) ;
#16 = DIRECTION ( 'NONE',  ( 0.0000000000000000000, 1.000000000000000000, 0.0000000000000000000 ) ) ;
#17 = DIRECTION ( 'NONE',  ( 0.0000000000000000000, -0.0000000000000000000, 1.000000000000000000 ) ) ;
#18 =( GEOMETRIC_REPRESENTATION_CONTEXT ( 3 ) GLOBAL_UNCERTAINTY_ASSIGNED_CONTEXT ( ( #75 ) ) GLOBAL_UNIT_ASSIGNED_CONTEXT ( ( #79, #80, #81 ) ) REPRESENTATION_CONTEXT ( 'NONE', 'WORKASPACE' ) );
#19 =( GEOMETRIC_REPRESENTATION_CONTEXT ( 3 ) GLOBAL_UNCERTAINTY_ASSIGNED_CONTEXT ( ( #76 ) ) GLOBAL_UNIT_ASSIGNED_CONTEXT ( ( #45, #46, #47 ) ) REPRESENTATION_CONTEXT ( 'NONE', 'WORKASPACE' ) );
#20 = CYLINDRICAL_SURFACE ( 'NONE', #108, 0.2500000000000000000 ) ;
#21 = AXIS2_PLACEMENT_3D ( 'NONE', #15, #16, #17 ) ;
#22 = FACE_OUTER_BOUND ( 'NONE', #59, .T. ) ;
#23 = PRODUCT_DEFINITION ( 'UNKNOWN', '', #149, #73 ) ;
#24 = DIMENSIONAL_EXPONENTS ( 1.000000000000000000, 0.0000000000000000000, 0.0000000000000000000, 0.0000000000000000000, 0.0000000000000000000, 0.0000000000000000000, 0.0000000000000000000 ) ;
#25 = DIMENSIONAL_EXPONENTS ( 1.000000000000000000, 0.0000000000000000000, 0.0000000000000000000, 0.0000000000000000000, 0.0000000000000000000, 0.0000000000000000000, 0.0000000000000000000 ) ;
#26 = EDGE_CURVE ( 'NONE', #54, #55, #60, .T. ) ;
#27 = CIRCLE ( 'NONE', #101, 0.2500000000000000000 ) ;
#28 = EDGE_CURVE ( 'NONE', #53, #55, #27, .T. ) ;
#29 = EDGE_CURVE ( 'NONE', #54, #52, #35, .T. ) ;
#30 = EDGE_CURVE ( 'NONE', #55, #53, #36, .T. ) ;
#31 = EDGE_CURVE ( 'NONE', #52, #53, #6, .T. ) ;
#32 = EDGE_CURVE ( 'NONE', #52, #54, #41, .T. ) ;
#33 = ADVANCED_FACE ( 'NONE', ( #102 ), #103, .T. ) ;
#34 = ADVANCED_FACE ( 'NONE', ( #109 ), #14, .T. ) ;
#35 = CIRCLE ( 'NONE', #107, 0.2500000000000000000 ) ;
#36 = CIRCLE ( 'NONE', #110, 0.2500000000000000000 ) ;
#37 = ADVANCED_FACE ( 'NONE', ( #22 ), #82, .F. ) ;
#38 = ADVANCED_FACE ( 'NONE', ( #43 ), #20, .T. ) ;
#39 = COLOUR_RGB ( '',0.5686274509803921400, 0.5686274509803921400, 0.5882352941176470800 ) ;
#40 = COLOUR_RGB ( '',0.5686274509803921400, 0.5686274509803921400, 0.5882352941176470800 ) ;
#41 = CIRCLE ( 'NONE', #100, 0.2500000000000000000 ) ;
#42 = PRODUCT_RELATED_PRODUCT_CATEGORY ( 'part', '', ( #70 ) ) ;
#43 = FACE_OUTER_BOUND ( 'NONE', #56, .T. ) ;
#44 =( LENGTH_UNIT ( ) NAMED_UNIT ( * ) SI_UNIT ( $, .METRE. ) );
#45 =( CONVERSION_BASED_UNIT ( 'INCH', #115 ) LENGTH_UNIT ( ) NAMED_UNIT ( #25 ) );
#46 =( NAMED_UNIT ( * ) PLANE_ANGLE_UNIT ( ) SI_UNIT ( $, .RADIAN. ) );
#47 =( NAMED_UNIT ( * ) SI_UNIT ( $, .STERADIAN. ) SOLID_ANGLE_UNIT ( ) );
#48 = FILL_AREA_STYLE_COLOUR ( '', #39 ) ;
#49 = APPLICATION_CONTEXT ( 'automotive_design' ) ;
#50 = APPLICATION_CONTEXT ( 'automotive_design' ) ;
#51 = ORIENTED_EDGE ( 'NONE', *, *, #32, .F. ) ;
#52 = VERTEX_POINT ( 'NONE', #89 ) ;
#53 = VERTEX_POINT ( 'NONE', #90 ) ;
#54 = VERTEX_POINT ( 'NONE', #91 ) ;
#55 = VERTEX_POINT ( 'NONE', #92 ) ;
#56 = EDGE_LOOP ( 'NONE', ( #128, #51, #129, #119 ) ) ;
#57 = EDGE_LOOP ( 'NONE', ( #124, #126, #125, #127 ) ) ;
#58 = EDGE_LOOP ( 'NONE', ( #120, #121 ) ) ;
#59 = EDGE_LOOP ( 'NONE', ( #122, #123 ) ) ;
#60 = LINE ( 'NONE', #61, #106 ) ;
#61 = CARTESIAN_POINT ( 'NONE',  ( 3.061616997868383000E-017, 0.2500000000000000000, 0.2500000000000000000 ) ) ;
#62 = DIRECTION ( 'NONE',  ( -0.0000000000000000000, -1.000000000000000000, -0.0000000000000000000 ) ) ;
#63 = CARTESIAN_POINT ( 'NONE',  ( 0.0000000000000000000, 0.0000000000000000000, 0.0000000000000000000 ) ) ;
#64 = DIRECTION ( 'NONE',  ( 0.0000000000000000000, 1.000000000000000000, 0.0000000000000000000 ) ) ;
#65 = DIRECTION ( 'NONE',  ( 0.0000000000000000000, 0.0000000000000000000, 1.000000000000000000 ) ) ;
#66 = CARTESIAN_POINT ( 'NONE',  ( 0.0000000000000000000, 0.2500000000000000000, 0.0000000000000000000 ) ) ;
#67 = DIRECTION ( 'NONE',  ( 0.0000000000000000000, 1.000000000000000000, 0.0000000000000000000 ) ) ;
#68 = AXIS2_PLACEMENT_3D ( 'NONE', #83, #84, #85 ) ;
#69 = DIMENSIONAL_EXPONENTS ( 1.000000000000000000, 0.0000000000000000000, 0.0000000000000000000, 0.0000000000000000000, 0.0000000000000000000, 0.0000000000000000000, 0.0000000000000000000 ) ;
#70 = PRODUCT ( 'D250D', 'D250D', '', ( #135 ) ) ;
#71 = PRODUCT_DEFINITION_SHAPE ( 'NONE', 'NONE',  #23 ) ;
#72 = MANIFOLD_SOLID_BREP ( 'Boss-Extrude1', #104 ) ;
#73 = PRODUCT_DEFINITION_CONTEXT ( 'detailed design', #49, 'design' ) ;
#74 = UNCERTAINTY_MEASURE_WITH_UNIT (LENGTH_MEASURE( 1.000000000000000100E-005 ), #144, 'distance_accuracy_value', 'NONE');
#75 = UNCERTAINTY_MEASURE_WITH_UNIT (LENGTH_MEASURE( 1.000000000000000100E-005 ), #79, 'distance_accuracy_value', 'NONE');
#76 = UNCERTAINTY_MEASURE_WITH_UNIT (LENGTH_MEASURE( 1.000000000000000100E-005 ), #45, 'distance_accuracy_value', 'NONE');
#77 = ADVANCED_BREP_SHAPE_REPRESENTATION ( 'D250D', ( #72, #148 ), #19 ) ;
#78 =( LENGTH_UNIT ( ) NAMED_UNIT ( * ) SI_UNIT ( $, .METRE. ) );
#79 =( CONVERSION_BASED_UNIT ( 'INCH', #114 ) LENGTH_UNIT ( ) NAMED_UNIT ( #24 ) );
#80 =( NAMED_UNIT ( * ) PLANE_ANGLE_UNIT ( ) SI_UNIT ( $, .RADIAN. ) );
#81 =( NAMED_UNIT ( * ) SI_UNIT ( $, .STERADIAN. ) SOLID_ANGLE_UNIT ( ) );
#82 = PLANE ( 'NONE',  #68 ) ;
#83 = CARTESIAN_POINT ( 'NONE',  ( 0.0000000000000000000, 0.0000000000000000000, 0.0000000000000000000 ) ) ;
#84 = DIRECTION ( 'NONE',  ( 0.0000000000000000000, 1.000000000000000000, 0.0000000000000000000 ) ) ;
#85 = DIRECTION ( 'NONE',  ( 0.0000000000000000000, -0.0000000000000000000, 1.000000000000000000 ) ) ;
#86 = CARTESIAN_POINT ( 'NONE',  ( 0.0000000000000000000, 0.2500000000000000000, 0.0000000000000000000 ) ) ;
#87 = DIRECTION ( 'NONE',  ( -0.0000000000000000000, -1.000000000000000000, -0.0000000000000000000 ) ) ;
#88 = DIRECTION ( 'NONE',  ( 0.0000000000000000000, 0.0000000000000000000, -1.000000000000000000 ) ) ;
#89 = CARTESIAN_POINT ( 'NONE',  ( 0.0000000000000000000, 0.2500000000000000000, -0.2500000000000000000 ) ) ;
#90 = CARTESIAN_POINT ( 'NONE',  ( 0.0000000000000000000, 0.0000000000000000000, -0.2500000000000000000 ) ) ;
#91 = CARTESIAN_POINT ( 'NONE',  ( 3.061616997868383000E-017, 0.2500000000000000000, 0.2500000000000000000 ) ) ;
#92 = CARTESIAN_POINT ( 'NONE',  ( 3.061616997868383000E-017, 0.0000000000000000000, 0.2500000000000000000 ) ) ;
#93 = FILL_AREA_STYLE_COLOUR ( '', #40 ) ;
#94 = FILL_AREA_STYLE ('',( #93 ) ) ;
#95 = SURFACE_STYLE_FILL_AREA ( #94 ) ;
#96 = SURFACE_SIDE_STYLE ('',( #95 ) ) ;
#97 = SURFACE_STYLE_USAGE ( .BOTH. , #96 ) ;
#98 = PRESENTATION_STYLE_ASSIGNMENT (( #97 ) ) ;
#99 = AXIS2_PLACEMENT_3D ( 'NONE', #11, #12, #13 ) ;
#100 = AXIS2_PLACEMENT_3D ( 'NONE', #5, #9, #10 ) ;
#101 = AXIS2_PLACEMENT_3D ( 'NONE', #63, #64, #65 ) ;
#102 = FACE_OUTER_BOUND ( 'NONE', #57, .T. ) ;
#103 = CYLINDRICAL_SURFACE ( 'NONE', #99, 0.2500000000000000000 ) ;
#104 = CLOSED_SHELL ( 'NONE', ( #33, #38, #34, #37 ) ) ;
#105 = VECTOR ( 'NONE', #8, 39.37007874015748100 ) ;
#106 = VECTOR ( 'NONE', #62, 39.37007874015748100 ) ;
#107 = AXIS2_PLACEMENT_3D ( 'NONE', #66, #67, #1 ) ;
#108 = AXIS2_PLACEMENT_3D ( 'NONE', #86, #87, #88 ) ;
#109 = FACE_OUTER_BOUND ( 'NONE', #58, .T. ) ;
#110 = AXIS2_PLACEMENT_3D ( 'NONE', #2, #3, #4 ) ;
#111 = STYLED_ITEM ( 'NONE', ( #98 ), #72 ) ;
#112 = PRESENTATION_LAYER_ASSIGNMENT (  '', '', ( #111 ) ) ;
#113 = MECHANICAL_DESIGN_GEOMETRIC_PRESENTATION_REPRESENTATION (  '', ( #111 ), #18 ) ;
#114 = LENGTH_MEASURE_WITH_UNIT ( LENGTH_MEASURE( 0.02539999999999999900 ), #78 );
#115 = LENGTH_MEASURE_WITH_UNIT ( LENGTH_MEASURE( 0.02539999999999999900 ), #44 );
#116 = STYLED_ITEM ( 'NONE', ( #142 ), #77 ) ;
#117 = PRESENTATION_LAYER_ASSIGNMENT (  '', '', ( #116 ) ) ;
#118 = MECHANICAL_DESIGN_GEOMETRIC_PRESENTATION_REPRESENTATION (  '', ( #116 ), #137 ) ;
#119 = ORIENTED_EDGE ( 'NONE', *, *, #28, .T. ) ;
#120 = ORIENTED_EDGE ( 'NONE', *, *, #32, .T. ) ;
#121 = ORIENTED_EDGE ( 'NONE', *, *, #29, .T. ) ;
#122 = ORIENTED_EDGE ( 'NONE', *, *, #28, .F. ) ;
#123 = ORIENTED_EDGE ( 'NONE', *, *, #30, .F. ) ;
#124 = ORIENTED_EDGE ( 'NONE', *, *, #29, .F. ) ;
#125 = ORIENTED_EDGE ( 'NONE', *, *, #30, .T. ) ;
#126 = ORIENTED_EDGE ( 'NONE', *, *, #26, .T. ) ;
#127 = ORIENTED_EDGE ( 'NONE', *, *, #31, .F. ) ;
#128 = ORIENTED_EDGE ( 'NONE', *, *, #26, .F. ) ;
#129 = ORIENTED_EDGE ( 'NONE', *, *, #31, .T. ) ;
#130 = CARTESIAN_POINT ( 'NONE',  ( 0.0000000000000000000, 0.0000000000000000000, 0.0000000000000000000 ) ) ;
#131 = DIRECTION ( 'NONE',  ( 0.0000000000000000000, 0.0000000000000000000, 1.000000000000000000 ) ) ;
#132 = DIRECTION ( 'NONE',  ( 1.000000000000000000, 0.0000000000000000000, 0.0000000000000000000 ) ) ;
#133 = SHAPE_DEFINITION_REPRESENTATION ( #71, #77 ) ;
#134 = APPLICATION_PROTOCOL_DEFINITION ( 'draft international standard', 'automotive_design', 1998, #50 ) ;
#135 = PRODUCT_CONTEXT ( 'NONE', #50, 'mechanical' ) ;
#136 = APPLICATION_PROTOCOL_DEFINITION ( 'draft international standard', 'automotive_design', 1998, #49 ) ;
#137 =( GEOMETRIC_REPRESENTATION_CONTEXT ( 3 ) GLOBAL_UNCERTAINTY_ASSIGNED_CONTEXT ( ( #74 ) ) GLOBAL_UNIT_ASSIGNED_CONTEXT ( ( #144, #145, #146 ) ) REPRESENTATION_CONTEXT ( 'NONE', 'WORKASPACE' ) );
#138 = FILL_AREA_STYLE ('',( #48 ) ) ;
#139 = SURFACE_STYLE_FILL_AREA ( #138 ) ;
#140 = SURFACE_SIDE_STYLE ('',( #139 ) ) ;
#141 = SURFACE_STYLE_USAGE ( .BOTH. , #140 ) ;
#142 = PRESENTATION_STYLE_ASSIGNMENT (( #141 ) ) ;
#143 =( LENGTH_UNIT ( ) NAMED_UNIT ( * ) SI_UNIT ( $, .METRE. ) );
#144 =( CONVERSION_BASED_UNIT ( 'INCH', #147 ) LENGTH_UNIT ( ) NAMED_UNIT ( #69 ) );
#145 =( NAMED_UNIT ( * ) PLANE_ANGLE_UNIT ( ) SI_UNIT ( $, .RADIAN. ) );
#146 =( NAMED_UNIT ( * ) SI_UNIT ( $, .STERADIAN. ) SOLID_ANGLE_UNIT ( ) );
#147 = LENGTH_MEASURE_WITH_UNIT ( LENGTH_MEASURE( 0.02539999999999999900 ), #143 );
#148 = AXIS2_PLACEMENT_3D ( 'NONE', #130, #131, #132 ) ;
#149 = PRODUCT_DEFINITION_FORMATION_WITH_SPECIFIED_SOURCE ( 'ANY', '', #70, .NOT_KNOWN. ) ;
ENDSEC;
END-ISO-10303-21;
