ISO-10303-21;
HEADER;
FILE_DESCRIPTION (( 'STEP AP214' ),
    '1' );
FILE_NAME ('D250DN45.step',
    '2012-04-20T20:55:39',
    ( '' ),
    ( '' ),
    'SwSTEP 2.0',
    'SolidWorks 2012',
    '' );
FILE_SCHEMA (( 'AUTOMOTIVE_DESIGN' ));
ENDSEC;

DATA;
#1 = STYLED_ITEM ( 'NONE', ( #53 ), #43 ) ;
#2 = PRESENTATION_LAYER_ASSIGNMENT (  '', '', ( #1 ) ) ;
#3 = MECHANICAL_DESIGN_GEOMETRIC_PRESENTATION_REPRESENTATION (  '', ( #1 ), #149 ) ;
#4 = LENGTH_MEASURE_WITH_UNIT ( LENGTH_MEASURE( 0.02539999999999999900 ), #54 );
#5 = AXIS2_PLACEMENT_3D ( 'NONE', #58, #59, #60 ) ;
#6 = PRODUCT_DEFINITION_FORMATION_WITH_SPECIFIED_SOURCE ( 'ANY', '', #49, .NOT_KNOWN. ) ;
#7 = EDGE_CURVE ( 'NONE', #37, #34, #70, .T. ) ;
#8 = CIRCLE ( 'NONE', #89, 0.2500000000000000000 ) ;
#9 = EDGE_CURVE ( 'NONE', #36, #34, #8, .T. ) ;
#10 = EDGE_CURVE ( 'NONE', #37, #35, #18, .T. ) ;
#11 = EDGE_CURVE ( 'NONE', #35, #36, #80, .T. ) ;
#12 = EDGE_CURVE ( 'NONE', #35, #37, #19, .T. ) ;
#13 = ADVANCED_FACE ( 'NONE', ( #93 ), #99, .T. ) ;
#14 = ADVANCED_FACE ( 'NONE', ( #86 ), #90, .T. ) ;
#15 = ADVANCED_FACE ( 'NONE', ( #84 ), #106, .F. ) ;
#16 = ADVANCED_FACE ( 'NONE', ( #113 ), #135, .T. ) ;
#17 = EDGE_CURVE ( 'NONE', #34, #36, #20, .T. ) ;
#18 = CIRCLE ( 'NONE', #88, 0.2500000000000000000 ) ;
#19 = CIRCLE ( 'NONE', #87, 0.2500000000000000000 ) ;
#20 = CIRCLE ( 'NONE', #114, 0.2500000000000000000 ) ;
#21 = COLOUR_RGB ( '',0.5686274509803921400, 0.5686274509803921400, 0.5882352941176470800 ) ;
#22 = COLOUR_RGB ( '',0.5686274509803921400, 0.5686274509803921400, 0.5882352941176470800 ) ;
#23 = PRODUCT_RELATED_PRODUCT_CATEGORY ( 'part', '', ( #49 ) ) ;
#24 = APPLICATION_CONTEXT ( 'automotive_design' ) ;
#25 = APPLICATION_CONTEXT ( 'automotive_design' ) ;
#26 = PRODUCT_DEFINITION ( 'UNKNOWN', '', #6, #52 ) ;
#27 = ORIENTED_EDGE ( 'NONE', *, *, #9, .T. ) ;
#28 = ORIENTED_EDGE ( 'NONE', *, *, #11, .T. ) ;
#29 = ORIENTED_EDGE ( 'NONE', *, *, #7, .F. ) ;
#30 = ORIENTED_EDGE ( 'NONE', *, *, #11, .F. ) ;
#31 = ORIENTED_EDGE ( 'NONE', *, *, #7, .T. ) ;
#32 = ORIENTED_EDGE ( 'NONE', *, *, #10, .F. ) ;
#33 = ORIENTED_EDGE ( 'NONE', *, *, #12, .F. ) ;
#34 = VERTEX_POINT ( 'NONE', #120 ) ;
#35 = VERTEX_POINT ( 'NONE', #121 ) ;
#36 = VERTEX_POINT ( 'NONE', #122 ) ;
#37 = VERTEX_POINT ( 'NONE', #123 ) ;
#38 = EDGE_LOOP ( 'NONE', ( #41, #65 ) ) ;
#39 = EDGE_LOOP ( 'NONE', ( #66, #67 ) ) ;
#40 = ORIENTED_EDGE ( 'NONE', *, *, #17, .T. ) ;
#41 = ORIENTED_EDGE ( 'NONE', *, *, #10, .T. ) ;
#42 = UNCERTAINTY_MEASURE_WITH_UNIT (LENGTH_MEASURE( 1.000000000000000100E-005 ), #55, 'distance_accuracy_value', 'NONE');
#43 = ADVANCED_BREP_SHAPE_REPRESENTATION ( 'D250DN45', ( #50, #5 ), #83 ) ;
#44 = UNCERTAINTY_MEASURE_WITH_UNIT (LENGTH_MEASURE( 1.000000000000000100E-005 ), #141, 'distance_accuracy_value', 'NONE');
#45 = UNCERTAINTY_MEASURE_WITH_UNIT (LENGTH_MEASURE( 1.000000000000000100E-005 ), #137, 'distance_accuracy_value', 'NONE');
#46 = DIMENSIONAL_EXPONENTS ( 1.000000000000000000, 0.0000000000000000000, 0.0000000000000000000, 0.0000000000000000000, 0.0000000000000000000, 0.0000000000000000000, 0.0000000000000000000 ) ;
#47 = DIMENSIONAL_EXPONENTS ( 1.000000000000000000, 0.0000000000000000000, 0.0000000000000000000, 0.0000000000000000000, 0.0000000000000000000, 0.0000000000000000000, 0.0000000000000000000 ) ;
#48 = DIMENSIONAL_EXPONENTS ( 1.000000000000000000, 0.0000000000000000000, 0.0000000000000000000, 0.0000000000000000000, 0.0000000000000000000, 0.0000000000000000000, 0.0000000000000000000 ) ;
#49 = PRODUCT ( 'D250DN45', 'D250DN45', '', ( #63 ) ) ;
#50 = MANIFOLD_SOLID_BREP ( 'Boss-Extrude1', #92 ) ;
#51 = PRODUCT_DEFINITION_SHAPE ( 'NONE', 'NONE',  #26 ) ;
#52 = PRODUCT_DEFINITION_CONTEXT ( 'detailed design', #24, 'design' ) ;
#53 = PRESENTATION_STYLE_ASSIGNMENT (( #148 ) ) ;
#54 =( LENGTH_UNIT ( ) NAMED_UNIT ( * ) SI_UNIT ( $, .METRE. ) );
#55 =( CONVERSION_BASED_UNIT ( 'INCH', #4 ) LENGTH_UNIT ( ) NAMED_UNIT ( #48 ) );
#56 =( NAMED_UNIT ( * ) PLANE_ANGLE_UNIT ( ) SI_UNIT ( $, .RADIAN. ) );
#57 =( NAMED_UNIT ( * ) SI_UNIT ( $, .STERADIAN. ) SOLID_ANGLE_UNIT ( ) );
#58 = CARTESIAN_POINT ( 'NONE',  ( 0.0000000000000000000, 0.0000000000000000000, 0.0000000000000000000 ) ) ;
#59 = DIRECTION ( 'NONE',  ( 0.0000000000000000000, 0.0000000000000000000, 1.000000000000000000 ) ) ;
#60 = DIRECTION ( 'NONE',  ( 1.000000000000000000, 0.0000000000000000000, 0.0000000000000000000 ) ) ;
#61 = SHAPE_DEFINITION_REPRESENTATION ( #51, #43 ) ;
#62 = APPLICATION_PROTOCOL_DEFINITION ( 'draft international standard', 'automotive_design', 1998, #25 ) ;
#63 = PRODUCT_CONTEXT ( 'NONE', #25, 'mechanical' ) ;
#64 = APPLICATION_PROTOCOL_DEFINITION ( 'draft international standard', 'automotive_design', 1998, #24 ) ;
#65 = ORIENTED_EDGE ( 'NONE', *, *, #12, .T. ) ;
#66 = ORIENTED_EDGE ( 'NONE', *, *, #17, .F. ) ;
#67 = ORIENTED_EDGE ( 'NONE', *, *, #9, .F. ) ;
#68 = EDGE_LOOP ( 'NONE', ( #30, #32, #31, #40 ) ) ;
#69 = EDGE_LOOP ( 'NONE', ( #33, #28, #27, #29 ) ) ;
#70 = LINE ( 'NONE', #71, #91 ) ;
#71 = CARTESIAN_POINT ( 'NONE',  ( 0.0000000000000000000, 0.2500000000000000000, -0.2500000000000000000 ) ) ;
#72 = DIRECTION ( 'NONE',  ( -0.0000000000000000000, -1.000000000000000000, -0.0000000000000000000 ) ) ;
#73 = CARTESIAN_POINT ( 'NONE',  ( 0.0000000000000000000, 0.0000000000000000000, 0.0000000000000000000 ) ) ;
#74 = DIRECTION ( 'NONE',  ( 0.0000000000000000000, 1.000000000000000000, 0.0000000000000000000 ) ) ;
#75 = DIRECTION ( 'NONE',  ( 0.0000000000000000000, 0.0000000000000000000, 1.000000000000000000 ) ) ;
#76 = CARTESIAN_POINT ( 'NONE',  ( 0.0000000000000000000, 0.2500000000000000000, 0.0000000000000000000 ) ) ;
#77 = DIRECTION ( 'NONE',  ( 0.0000000000000000000, 1.000000000000000000, 0.0000000000000000000 ) ) ;
#78 = DIRECTION ( 'NONE',  ( 0.0000000000000000000, 0.0000000000000000000, 1.000000000000000000 ) ) ;
#79 = CARTESIAN_POINT ( 'NONE',  ( 0.0000000000000000000, 0.2500000000000000000, 0.0000000000000000000 ) ) ;
#80 = LINE ( 'NONE', #81, #94 ) ;
#81 = CARTESIAN_POINT ( 'NONE',  ( 3.061616997868383000E-017, 0.2500000000000000000, 0.2500000000000000000 ) ) ;
#82 =( GEOMETRIC_REPRESENTATION_CONTEXT ( 3 ) GLOBAL_UNCERTAINTY_ASSIGNED_CONTEXT ( ( #45 ) ) GLOBAL_UNIT_ASSIGNED_CONTEXT ( ( #137, #138, #139 ) ) REPRESENTATION_CONTEXT ( 'NONE', 'WORKASPACE' ) );
#83 =( GEOMETRIC_REPRESENTATION_CONTEXT ( 3 ) GLOBAL_UNCERTAINTY_ASSIGNED_CONTEXT ( ( #44 ) ) GLOBAL_UNIT_ASSIGNED_CONTEXT ( ( #141, #142, #143 ) ) REPRESENTATION_CONTEXT ( 'NONE', 'WORKASPACE' ) );
#84 = FACE_OUTER_BOUND ( 'NONE', #39, .T. ) ;
#85 = AXIS2_PLACEMENT_3D ( 'NONE', #100, #101, #102 ) ;
#86 = FACE_OUTER_BOUND ( 'NONE', #68, .T. ) ;
#87 = AXIS2_PLACEMENT_3D ( 'NONE', #79, #97, #98 ) ;
#88 = AXIS2_PLACEMENT_3D ( 'NONE', #76, #77, #78 ) ;
#89 = AXIS2_PLACEMENT_3D ( 'NONE', #73, #74, #75 ) ;
#90 = CYLINDRICAL_SURFACE ( 'NONE', #95, 0.2500000000000000000 ) ;
#91 = VECTOR ( 'NONE', #72, 39.37007874015748100 ) ;
#92 = CLOSED_SHELL ( 'NONE', ( #16, #14, #13, #15 ) ) ;
#93 = FACE_OUTER_BOUND ( 'NONE', #38, .T. ) ;
#94 = VECTOR ( 'NONE', #96, 39.37007874015748100 ) ;
#95 = AXIS2_PLACEMENT_3D ( 'NONE', #103, #104, #105 ) ;
#96 = DIRECTION ( 'NONE',  ( -0.0000000000000000000, -1.000000000000000000, -0.0000000000000000000 ) ) ;
#97 = DIRECTION ( 'NONE',  ( 0.0000000000000000000, 1.000000000000000000, 0.0000000000000000000 ) ) ;
#98 = DIRECTION ( 'NONE',  ( 0.0000000000000000000, 0.0000000000000000000, 1.000000000000000000 ) ) ;
#99 = PLANE ( 'NONE',  #85 ) ;
#100 = CARTESIAN_POINT ( 'NONE',  ( 0.0000000000000000000, 0.2500000000000000000, 0.0000000000000000000 ) ) ;
#101 = DIRECTION ( 'NONE',  ( 0.0000000000000000000, 1.000000000000000000, 0.0000000000000000000 ) ) ;
#102 = DIRECTION ( 'NONE',  ( 0.0000000000000000000, -0.0000000000000000000, 1.000000000000000000 ) ) ;
#103 = CARTESIAN_POINT ( 'NONE',  ( 0.0000000000000000000, 0.2500000000000000000, 0.0000000000000000000 ) ) ;
#104 = DIRECTION ( 'NONE',  ( -0.0000000000000000000, -1.000000000000000000, -0.0000000000000000000 ) ) ;
#105 = DIRECTION ( 'NONE',  ( 0.0000000000000000000, 0.0000000000000000000, -1.000000000000000000 ) ) ;
#106 = PLANE ( 'NONE',  #115 ) ;
#107 = CARTESIAN_POINT ( 'NONE',  ( 0.0000000000000000000, 0.0000000000000000000, 0.0000000000000000000 ) ) ;
#108 = DIRECTION ( 'NONE',  ( 0.0000000000000000000, 1.000000000000000000, 0.0000000000000000000 ) ) ;
#109 = DIRECTION ( 'NONE',  ( 0.0000000000000000000, -0.0000000000000000000, 1.000000000000000000 ) ) ;
#110 = CARTESIAN_POINT ( 'NONE',  ( 0.0000000000000000000, 0.2500000000000000000, 0.0000000000000000000 ) ) ;
#111 = DIRECTION ( 'NONE',  ( -0.0000000000000000000, -1.000000000000000000, -0.0000000000000000000 ) ) ;
#112 = DIRECTION ( 'NONE',  ( 0.0000000000000000000, 0.0000000000000000000, -1.000000000000000000 ) ) ;
#113 = FACE_OUTER_BOUND ( 'NONE', #69, .T. ) ;
#114 = AXIS2_PLACEMENT_3D ( 'NONE', #117, #118, #119 ) ;
#115 = AXIS2_PLACEMENT_3D ( 'NONE', #107, #108, #109 ) ;
#116 = STYLED_ITEM ( 'NONE', ( #129 ), #50 ) ;
#117 = CARTESIAN_POINT ( 'NONE',  ( 0.0000000000000000000, 0.0000000000000000000, 0.0000000000000000000 ) ) ;
#118 = DIRECTION ( 'NONE',  ( 0.0000000000000000000, 1.000000000000000000, 0.0000000000000000000 ) ) ;
#119 = DIRECTION ( 'NONE',  ( 0.0000000000000000000, 0.0000000000000000000, 1.000000000000000000 ) ) ;
#120 = CARTESIAN_POINT ( 'NONE',  ( 0.0000000000000000000, 0.0000000000000000000, -0.2500000000000000000 ) ) ;
#121 = CARTESIAN_POINT ( 'NONE',  ( 3.061616997868383000E-017, 0.2500000000000000000, 0.2500000000000000000 ) ) ;
#122 = CARTESIAN_POINT ( 'NONE',  ( 3.061616997868383000E-017, 0.0000000000000000000, 0.2500000000000000000 ) ) ;
#123 = CARTESIAN_POINT ( 'NONE',  ( 0.0000000000000000000, 0.2500000000000000000, -0.2500000000000000000 ) ) ;
#124 = FILL_AREA_STYLE_COLOUR ( '', #22 ) ;
#125 = FILL_AREA_STYLE ('',( #124 ) ) ;
#126 = SURFACE_STYLE_FILL_AREA ( #125 ) ;
#127 = SURFACE_SIDE_STYLE ('',( #126 ) ) ;
#128 = SURFACE_STYLE_USAGE ( .BOTH. , #127 ) ;
#129 = PRESENTATION_STYLE_ASSIGNMENT (( #128 ) ) ;
#130 =( LENGTH_UNIT ( ) NAMED_UNIT ( * ) SI_UNIT ( $, .METRE. ) );
#131 = AXIS2_PLACEMENT_3D ( 'NONE', #110, #111, #112 ) ;
#132 = LENGTH_MEASURE_WITH_UNIT ( LENGTH_MEASURE( 0.02539999999999999900 ), #140 );
#133 = PRESENTATION_LAYER_ASSIGNMENT (  '', '', ( #116 ) ) ;
#134 = MECHANICAL_DESIGN_GEOMETRIC_PRESENTATION_REPRESENTATION (  '', ( #116 ), #82 ) ;
#135 = CYLINDRICAL_SURFACE ( 'NONE', #131, 0.2500000000000000000 ) ;
#136 = LENGTH_MEASURE_WITH_UNIT ( LENGTH_MEASURE( 0.02539999999999999900 ), #130 );
#137 =( CONVERSION_BASED_UNIT ( 'INCH', #136 ) LENGTH_UNIT ( ) NAMED_UNIT ( #46 ) );
#138 =( NAMED_UNIT ( * ) PLANE_ANGLE_UNIT ( ) SI_UNIT ( $, .RADIAN. ) );
#139 =( NAMED_UNIT ( * ) SI_UNIT ( $, .STERADIAN. ) SOLID_ANGLE_UNIT ( ) );
#140 =( LENGTH_UNIT ( ) NAMED_UNIT ( * ) SI_UNIT ( $, .METRE. ) );
#141 =( CONVERSION_BASED_UNIT ( 'INCH', #132 ) LENGTH_UNIT ( ) NAMED_UNIT ( #47 ) );
#142 =( NAMED_UNIT ( * ) PLANE_ANGLE_UNIT ( ) SI_UNIT ( $, .RADIAN. ) );
#143 =( NAMED_UNIT ( * ) SI_UNIT ( $, .STERADIAN. ) SOLID_ANGLE_UNIT ( ) );
#144 = FILL_AREA_STYLE_COLOUR ( '', #21 ) ;
#145 = FILL_AREA_STYLE ('',( #144 ) ) ;
#146 = SURFACE_STYLE_FILL_AREA ( #145 ) ;
#147 = SURFACE_SIDE_STYLE ('',( #146 ) ) ;
#148 = SURFACE_STYLE_USAGE ( .BOTH. , #147 ) ;
#149 =( GEOMETRIC_REPRESENTATION_CONTEXT ( 3 ) GLOBAL_UNCERTAINTY_ASSIGNED_CONTEXT ( ( #42 ) ) GLOBAL_UNIT_ASSIGNED_CONTEXT ( ( #55, #56, #57 ) ) REPRESENTATION_CONTEXT ( 'NONE', 'WORKASPACE' ) );
ENDSEC;
END-ISO-10303-21;
