ISO-10303-21;
HEADER;
FILE_DESCRIPTION (( 'STEP AP214' ),
    '1' );
FILE_NAME ('D500H.step',
    '2012-04-20T20:56:12',
    ( '' ),
    ( '' ),
    'SwSTEP 2.0',
    'SolidWorks 2012',
    '' );
FILE_SCHEMA (( 'AUTOMOTIVE_DESIGN' ));
ENDSEC;

DATA;
#1 = FACE_OUTER_BOUND ( 'NONE', #138, .T. ) ;
#2 =( NAMED_UNIT ( * ) SI_UNIT ( $, .STERADIAN. ) SOLID_ANGLE_UNIT ( ) );
#3 = SHAPE_DEFINITION_REPRESENTATION ( #80, #64 ) ;
#4 = FILL_AREA_STYLE_COLOUR ( '', #59 ) ;
#5 = FILL_AREA_STYLE ('',( #4 ) ) ;
#6 = SURFACE_STYLE_FILL_AREA ( #5 ) ;
#7 = SURFACE_SIDE_STYLE ('',( #6 ) ) ;
#8 = SURFACE_STYLE_USAGE ( .BOTH. , #7 ) ;
#9 = PRESENTATION_STYLE_ASSIGNMENT (( #8 ) ) ;
#10 =( LENGTH_UNIT ( ) NAMED_UNIT ( * ) SI_UNIT ( $, .METRE. ) );
#11 =( CONVERSION_BASED_UNIT ( 'INCH', #148 ) LENGTH_UNIT ( ) NAMED_UNIT ( #101 ) );
#12 =( NAMED_UNIT ( * ) PLANE_ANGLE_UNIT ( ) SI_UNIT ( $, .RADIAN. ) );
#13 =( NAMED_UNIT ( * ) SI_UNIT ( $, .STERADIAN. ) SOLID_ANGLE_UNIT ( ) );
#14 = CARTESIAN_POINT ( 'NONE',  ( 0.0000000000000000000, 0.0000000000000000000, 0.0000000000000000000 ) ) ;
#15 = DIRECTION ( 'NONE',  ( 0.0000000000000000000, 0.0000000000000000000, 1.000000000000000000 ) ) ;
#16 = DIRECTION ( 'NONE',  ( 1.000000000000000000, 0.0000000000000000000, 0.0000000000000000000 ) ) ;
#17 = APPLICATION_PROTOCOL_DEFINITION ( 'draft international standard', 'automotive_design', 1998, #21 ) ;
#18 = CYLINDRICAL_SURFACE ( 'NONE', #38, 0.5000000000000000000 ) ;
#19 = PRODUCT_CONTEXT ( 'NONE', #21, 'mechanical' ) ;
#20 = APPLICATION_PROTOCOL_DEFINITION ( 'draft international standard', 'automotive_design', 1998, #22 ) ;
#21 = APPLICATION_CONTEXT ( 'automotive_design' ) ;
#22 = APPLICATION_CONTEXT ( 'automotive_design' ) ;
#23 =( GEOMETRIC_REPRESENTATION_CONTEXT ( 3 ) GLOBAL_UNCERTAINTY_ASSIGNED_CONTEXT ( ( #65 ) ) GLOBAL_UNIT_ASSIGNED_CONTEXT ( ( #78, #28, #29 ) ) REPRESENTATION_CONTEXT ( 'NONE', 'WORKASPACE' ) );
#24 =( GEOMETRIC_REPRESENTATION_CONTEXT ( 3 ) GLOBAL_UNCERTAINTY_ASSIGNED_CONTEXT ( ( #62 ) ) GLOBAL_UNIT_ASSIGNED_CONTEXT ( ( #52, #53, #2 ) ) REPRESENTATION_CONTEXT ( 'NONE', 'WORKASPACE' ) );
#25 =( GEOMETRIC_REPRESENTATION_CONTEXT ( 3 ) GLOBAL_UNCERTAINTY_ASSIGNED_CONTEXT ( ( #63 ) ) GLOBAL_UNIT_ASSIGNED_CONTEXT ( ( #11, #12, #13 ) ) REPRESENTATION_CONTEXT ( 'NONE', 'WORKASPACE' ) );
#26 = AXIS2_PLACEMENT_3D ( 'NONE', #14, #15, #16 ) ;
#27 = PRODUCT_DEFINITION_FORMATION_WITH_SPECIFIED_SOURCE ( 'ANY', '', #102, .NOT_KNOWN. ) ;
#28 =( NAMED_UNIT ( * ) PLANE_ANGLE_UNIT ( ) SI_UNIT ( $, .RADIAN. ) );
#29 =( NAMED_UNIT ( * ) SI_UNIT ( $, .STERADIAN. ) SOLID_ANGLE_UNIT ( ) );
#30 = DIRECTION ( 'NONE',  ( 0.0000000000000000000, 1.000000000000000000, 0.0000000000000000000 ) ) ;
#31 = DIRECTION ( 'NONE',  ( 0.0000000000000000000, 0.0000000000000000000, 1.000000000000000000 ) ) ;
#32 = CARTESIAN_POINT ( 'NONE',  ( 0.0000000000000000000, 0.0000000000000000000, 0.0000000000000000000 ) ) ;
#33 = DIRECTION ( 'NONE',  ( 0.0000000000000000000, 1.000000000000000000, 0.0000000000000000000 ) ) ;
#34 = DIRECTION ( 'NONE',  ( 0.0000000000000000000, 0.0000000000000000000, 1.000000000000000000 ) ) ;
#35 = CARTESIAN_POINT ( 'NONE',  ( 0.0000000000000000000, 0.5000000000000000000, 0.0000000000000000000 ) ) ;
#36 = LINE ( 'NONE', #37, #42 ) ;
#37 = CARTESIAN_POINT ( 'NONE',  ( 0.0000000000000000000, 0.5000000000000000000, -0.5000000000000000000 ) ) ;
#38 = AXIS2_PLACEMENT_3D ( 'NONE', #93, #94, #95 ) ;
#39 = AXIS2_PLACEMENT_3D ( 'NONE', #90, #91, #92 ) ;
#40 = FACE_OUTER_BOUND ( 'NONE', #140, .T. ) ;
#41 = AXIS2_PLACEMENT_3D ( 'NONE', #35, #83, #84 ) ;
#42 = VECTOR ( 'NONE', #82, 39.37007874015748100 ) ;
#43 = AXIS2_PLACEMENT_3D ( 'NONE', #86, #87, #88 ) ;
#44 = CARTESIAN_POINT ( 'NONE',  ( 0.0000000000000000000, 0.0000000000000000000, -0.5000000000000000000 ) ) ;
#45 = CARTESIAN_POINT ( 'NONE',  ( 6.123233995736766000E-017, 0.5000000000000000000, 0.5000000000000000000 ) ) ;
#46 = CARTESIAN_POINT ( 'NONE',  ( 6.123233995736766000E-017, 0.0000000000000000000, 0.5000000000000000000 ) ) ;
#47 = CARTESIAN_POINT ( 'NONE',  ( 0.0000000000000000000, 0.5000000000000000000, -0.5000000000000000000 ) ) ;
#48 = LINE ( 'NONE', #49, #143 ) ;
#49 = CARTESIAN_POINT ( 'NONE',  ( 6.123233995736766000E-017, 0.5000000000000000000, 0.5000000000000000000 ) ) ;
#50 = DIRECTION ( 'NONE',  ( -0.0000000000000000000, -1.000000000000000000, -0.0000000000000000000 ) ) ;
#51 =( LENGTH_UNIT ( ) NAMED_UNIT ( * ) SI_UNIT ( $, .METRE. ) );
#52 =( CONVERSION_BASED_UNIT ( 'INCH', #144 ) LENGTH_UNIT ( ) NAMED_UNIT ( #100 ) );
#53 =( NAMED_UNIT ( * ) PLANE_ANGLE_UNIT ( ) SI_UNIT ( $, .RADIAN. ) );
#54 = EDGE_CURVE ( 'NONE', #113, #125, #103, .T. ) ;
#55 = COLOUR_RGB ( '',0.5686274509803921400, 0.5686274509803921400, 0.5882352941176470800 ) ;
#56 = CIRCLE ( 'NONE', #116, 0.5000000000000000000 ) ;
#57 = CIRCLE ( 'NONE', #115, 0.5000000000000000000 ) ;
#58 = CIRCLE ( 'NONE', #41, 0.5000000000000000000 ) ;
#59 = COLOUR_RGB ( '',0.5686274509803921400, 0.5686274509803921400, 0.5882352941176470800 ) ;
#60 = PRODUCT_RELATED_PRODUCT_CATEGORY ( 'part', '', ( #102 ) ) ;
#61 = PRODUCT_DEFINITION ( 'UNKNOWN', '', #27, #79 ) ;
#62 = UNCERTAINTY_MEASURE_WITH_UNIT (LENGTH_MEASURE( 1.000000000000000100E-005 ), #52, 'distance_accuracy_value', 'NONE');
#63 = UNCERTAINTY_MEASURE_WITH_UNIT (LENGTH_MEASURE( 1.000000000000000100E-005 ), #11, 'distance_accuracy_value', 'NONE');
#64 = ADVANCED_BREP_SHAPE_REPRESENTATION ( 'D500H', ( #81, #26 ), #24 ) ;
#65 = UNCERTAINTY_MEASURE_WITH_UNIT (LENGTH_MEASURE( 1.000000000000000100E-005 ), #78, 'distance_accuracy_value', 'NONE');
#66 = EDGE_LOOP ( 'NONE', ( #129, #130 ) ) ;
#67 = CARTESIAN_POINT ( 'NONE',  ( 0.0000000000000000000, 0.5000000000000000000, 0.0000000000000000000 ) ) ;
#68 = DIRECTION ( 'NONE',  ( 0.0000000000000000000, 1.000000000000000000, 0.0000000000000000000 ) ) ;
#69 = DIRECTION ( 'NONE',  ( 0.0000000000000000000, 0.0000000000000000000, 1.000000000000000000 ) ) ;
#70 = CARTESIAN_POINT ( 'NONE',  ( 0.0000000000000000000, 0.0000000000000000000, 0.0000000000000000000 ) ) ;
#71 = FILL_AREA_STYLE_COLOUR ( '', #55 ) ;
#72 = FILL_AREA_STYLE ('',( #71 ) ) ;
#73 = SURFACE_STYLE_FILL_AREA ( #72 ) ;
#74 = SURFACE_SIDE_STYLE ('',( #73 ) ) ;
#75 = SURFACE_STYLE_USAGE ( .BOTH. , #74 ) ;
#76 = PRESENTATION_STYLE_ASSIGNMENT (( #75 ) ) ;
#77 =( LENGTH_UNIT ( ) NAMED_UNIT ( * ) SI_UNIT ( $, .METRE. ) );
#78 =( CONVERSION_BASED_UNIT ( 'INCH', #120 ) LENGTH_UNIT ( ) NAMED_UNIT ( #99 ) );
#79 = PRODUCT_DEFINITION_CONTEXT ( 'detailed design', #22, 'design' ) ;
#80 = PRODUCT_DEFINITION_SHAPE ( 'NONE', 'NONE',  #61 ) ;
#81 = MANIFOLD_SOLID_BREP ( 'Boss-Extrude1', #122 ) ;
#82 = DIRECTION ( 'NONE',  ( -0.0000000000000000000, -1.000000000000000000, -0.0000000000000000000 ) ) ;
#83 = DIRECTION ( 'NONE',  ( 0.0000000000000000000, 1.000000000000000000, 0.0000000000000000000 ) ) ;
#84 = DIRECTION ( 'NONE',  ( 0.0000000000000000000, 0.0000000000000000000, 1.000000000000000000 ) ) ;
#85 = PLANE ( 'NONE',  #43 ) ;
#86 = CARTESIAN_POINT ( 'NONE',  ( 0.0000000000000000000, 0.0000000000000000000, 0.0000000000000000000 ) ) ;
#87 = DIRECTION ( 'NONE',  ( 0.0000000000000000000, 1.000000000000000000, 0.0000000000000000000 ) ) ;
#88 = DIRECTION ( 'NONE',  ( 0.0000000000000000000, -0.0000000000000000000, 1.000000000000000000 ) ) ;
#89 = PLANE ( 'NONE',  #39 ) ;
#90 = CARTESIAN_POINT ( 'NONE',  ( 0.0000000000000000000, 0.5000000000000000000, 0.0000000000000000000 ) ) ;
#91 = DIRECTION ( 'NONE',  ( 0.0000000000000000000, 1.000000000000000000, 0.0000000000000000000 ) ) ;
#92 = DIRECTION ( 'NONE',  ( 0.0000000000000000000, -0.0000000000000000000, 1.000000000000000000 ) ) ;
#93 = CARTESIAN_POINT ( 'NONE',  ( 0.0000000000000000000, 0.5000000000000000000, 0.0000000000000000000 ) ) ;
#94 = DIRECTION ( 'NONE',  ( -0.0000000000000000000, -1.000000000000000000, -0.0000000000000000000 ) ) ;
#95 = DIRECTION ( 'NONE',  ( 0.0000000000000000000, 0.0000000000000000000, -1.000000000000000000 ) ) ;
#96 = CARTESIAN_POINT ( 'NONE',  ( 0.0000000000000000000, 0.5000000000000000000, 0.0000000000000000000 ) ) ;
#97 = DIRECTION ( 'NONE',  ( -0.0000000000000000000, -1.000000000000000000, -0.0000000000000000000 ) ) ;
#98 = DIRECTION ( 'NONE',  ( 0.0000000000000000000, 0.0000000000000000000, -1.000000000000000000 ) ) ;
#99 = DIMENSIONAL_EXPONENTS ( 1.000000000000000000, 0.0000000000000000000, 0.0000000000000000000, 0.0000000000000000000, 0.0000000000000000000, 0.0000000000000000000, 0.0000000000000000000 ) ;
#100 = DIMENSIONAL_EXPONENTS ( 1.000000000000000000, 0.0000000000000000000, 0.0000000000000000000, 0.0000000000000000000, 0.0000000000000000000, 0.0000000000000000000, 0.0000000000000000000 ) ;
#101 = DIMENSIONAL_EXPONENTS ( 1.000000000000000000, 0.0000000000000000000, 0.0000000000000000000, 0.0000000000000000000, 0.0000000000000000000, 0.0000000000000000000, 0.0000000000000000000 ) ;
#102 = PRODUCT ( 'D500H', 'D500H', '', ( #19 ) ) ;
#103 = CIRCLE ( 'NONE', #119, 0.5000000000000000000 ) ;
#104 = EDGE_CURVE ( 'NONE', #112, #124, #56, .T. ) ;
#105 = EDGE_CURVE ( 'NONE', #124, #112, #57, .T. ) ;
#106 = EDGE_CURVE ( 'NONE', #125, #112, #36, .T. ) ;
#107 = EDGE_CURVE ( 'NONE', #125, #113, #58, .T. ) ;
#108 = ADVANCED_FACE ( 'NONE', ( #114 ), #85, .F. ) ;
#109 = ADVANCED_FACE ( 'NONE', ( #40 ), #89, .T. ) ;
#110 = ADVANCED_FACE ( 'NONE', ( #1 ), #18, .T. ) ;
#111 = ADVANCED_FACE ( 'NONE', ( #118 ), #141, .T. ) ;
#112 = VERTEX_POINT ( 'NONE', #44 ) ;
#113 = VERTEX_POINT ( 'NONE', #45 ) ;
#114 = FACE_OUTER_BOUND ( 'NONE', #66, .T. ) ;
#115 = AXIS2_PLACEMENT_3D ( 'NONE', #32, #33, #34 ) ;
#116 = AXIS2_PLACEMENT_3D ( 'NONE', #70, #30, #31 ) ;
#117 = PRESENTATION_LAYER_ASSIGNMENT (  '', '', ( #123 ) ) ;
#118 = FACE_OUTER_BOUND ( 'NONE', #139, .T. ) ;
#119 = AXIS2_PLACEMENT_3D ( 'NONE', #67, #68, #69 ) ;
#120 = LENGTH_MEASURE_WITH_UNIT ( LENGTH_MEASURE( 0.02539999999999999900 ), #77 );
#121 = MECHANICAL_DESIGN_GEOMETRIC_PRESENTATION_REPRESENTATION (  '', ( #123 ), #23 ) ;
#122 = CLOSED_SHELL ( 'NONE', ( #111, #110, #109, #108 ) ) ;
#123 = STYLED_ITEM ( 'NONE', ( #76 ), #81 ) ;
#124 = VERTEX_POINT ( 'NONE', #46 ) ;
#125 = VERTEX_POINT ( 'NONE', #47 ) ;
#126 = ORIENTED_EDGE ( 'NONE', *, *, #104, .T. ) ;
#127 = ORIENTED_EDGE ( 'NONE', *, *, #107, .T. ) ;
#128 = ORIENTED_EDGE ( 'NONE', *, *, #54, .T. ) ;
#129 = ORIENTED_EDGE ( 'NONE', *, *, #104, .F. ) ;
#130 = ORIENTED_EDGE ( 'NONE', *, *, #105, .F. ) ;
#131 = ORIENTED_EDGE ( 'NONE', *, *, #105, .T. ) ;
#132 = ORIENTED_EDGE ( 'NONE', *, *, #149, .T. ) ;
#133 = ORIENTED_EDGE ( 'NONE', *, *, #106, .F. ) ;
#134 = ORIENTED_EDGE ( 'NONE', *, *, #149, .F. ) ;
#135 = ORIENTED_EDGE ( 'NONE', *, *, #106, .T. ) ;
#136 = ORIENTED_EDGE ( 'NONE', *, *, #107, .F. ) ;
#137 = ORIENTED_EDGE ( 'NONE', *, *, #54, .F. ) ;
#138 = EDGE_LOOP ( 'NONE', ( #134, #136, #135, #126 ) ) ;
#139 = EDGE_LOOP ( 'NONE', ( #137, #132, #131, #133 ) ) ;
#140 = EDGE_LOOP ( 'NONE', ( #127, #128 ) ) ;
#141 = CYLINDRICAL_SURFACE ( 'NONE', #142, 0.5000000000000000000 ) ;
#142 = AXIS2_PLACEMENT_3D ( 'NONE', #96, #97, #98 ) ;
#143 = VECTOR ( 'NONE', #50, 39.37007874015748100 ) ;
#144 = LENGTH_MEASURE_WITH_UNIT ( LENGTH_MEASURE( 0.02539999999999999900 ), #51 );
#145 = STYLED_ITEM ( 'NONE', ( #9 ), #64 ) ;
#146 = PRESENTATION_LAYER_ASSIGNMENT (  '', '', ( #145 ) ) ;
#147 = MECHANICAL_DESIGN_GEOMETRIC_PRESENTATION_REPRESENTATION (  '', ( #145 ), #25 ) ;
#148 = LENGTH_MEASURE_WITH_UNIT ( LENGTH_MEASURE( 0.02539999999999999900 ), #10 );
#149 = EDGE_CURVE ( 'NONE', #113, #124, #48, .T. ) ;
ENDSEC;
END-ISO-10303-21;
