ISO-10303-21;
HEADER;
FILE_DESCRIPTION (( 'STEP AP214' ),
    '1' );
FILE_NAME ('DH063C-F.step',
    '2012-03-29T22:23:58',
    ( '' ),
    ( '' ),
    'SwSTEP 2.0',
    'SolidWorks 2012',
    '' );
FILE_SCHEMA (( 'AUTOMOTIVE_DESIGN' ));
ENDSEC;

DATA;
#1 = AXIS2_PLACEMENT_3D ( 'NONE', #259, #257, #250 ) ;
#2 = FACE_BOUND ( 'NONE', #45, .T. ) ;
#3 = CYLINDRICAL_SURFACE ( 'NONE', #11, 0.1874999999999999700 ) ;
#4 = PRODUCT_DEFINITION_FORMATION_WITH_SPECIFIED_SOURCE ( 'ANY', '', #134, .NOT_KNOWN. ) ;
#5 = AXIS2_PLACEMENT_3D ( 'NONE', #226, #222, #221 ) ;
#6 = FACE_OUTER_BOUND ( 'NONE', #130, .T. ) ;
#7 = AXIS2_PLACEMENT_3D ( 'NONE', #233, #229, #260 ) ;
#8 = AXIS2_PLACEMENT_3D ( 'NONE', #235, #234, #232 ) ;
#9 = VECTOR ( 'NONE', #240, 39.37007874015748100 ) ;
#10 = LENGTH_MEASURE_WITH_UNIT ( LENGTH_MEASURE( 0.02539999999999999900 ), #205 );
#11 = AXIS2_PLACEMENT_3D ( 'NONE', #211, #210, #209 ) ;
#12 = VECTOR ( 'NONE', #223, 39.37007874015748100 ) ;
#13 = FACE_BOUND ( 'NONE', #89, .T. ) ;
#14 = AXIS2_PLACEMENT_3D ( 'NONE', #254, #256, #252 ) ;
#15 = VECTOR ( 'NONE', #206, 39.37007874015748100 ) ;
#16 = FACE_OUTER_BOUND ( 'NONE', #88, .T. ) ;
#17 = LENGTH_MEASURE_WITH_UNIT ( LENGTH_MEASURE( 0.02539999999999999900 ), #194 );
#18 = AXIS2_PLACEMENT_3D ( 'NONE', #231, #244, #242 ) ;
#19 = AXIS2_PLACEMENT_3D ( 'NONE', #40, #41, #43 ) ;
#20 = FACE_OUTER_BOUND ( 'NONE', #44, .T. ) ;
#21 = FACE_OUTER_BOUND ( 'NONE', #92, .T. ) ;
#22 = AXIS2_PLACEMENT_3D ( 'NONE', #251, #238, #248 ) ;
#23 = FACE_OUTER_BOUND ( 'NONE', #61, .T. ) ;
#24 = AXIS2_PLACEMENT_3D ( 'NONE', #190, #189, #188 ) ;
#25 = AXIS2_PLACEMENT_3D ( 'NONE', #243, #241, #227 ) ;
#26 = AXIS2_PLACEMENT_3D ( 'NONE', #214, #213, #212 ) ;
#27 = CYLINDRICAL_SURFACE ( 'NONE', #35, 0.08250000000000003200 ) ;
#28 = FACE_OUTER_BOUND ( 'NONE', #53, .T. ) ;
#29 = CYLINDRICAL_SURFACE ( 'NONE', #14, 0.1874999999999999700 ) ;
#30 = FACE_OUTER_BOUND ( 'NONE', #87, .T. ) ;
#31 = VECTOR ( 'NONE', #253, 39.37007874015748100 ) ;
#32 = MECHANICAL_DESIGN_GEOMETRIC_PRESENTATION_REPRESENTATION (  '', ( #34 ), #180 ) ;
#33 = PRESENTATION_LAYER_ASSIGNMENT (  '', '', ( #34 ) ) ;
#34 = STYLED_ITEM ( 'NONE', ( #195 ), #183 ) ;
#35 = AXIS2_PLACEMENT_3D ( 'NONE', #255, #237, #236 ) ;
#36 = AXIS2_PLACEMENT_3D ( 'NONE', #217, #216, #215 ) ;
#37 = CYLINDRICAL_SURFACE ( 'NONE', #19, 0.08250000000000003200 ) ;
#38 = AXIS2_PLACEMENT_3D ( 'NONE', #220, #219, #218 ) ;
#39 = AXIS2_PLACEMENT_3D ( 'NONE', #249, #245, #247 ) ;
#40 = CARTESIAN_POINT ( 'NONE',  ( 0.0000000000000000000, 0.0000000000000000000, 0.0000000000000000000 ) ) ;
#41 = DIRECTION ( 'NONE',  ( -0.0000000000000000000, -1.000000000000000000, -0.0000000000000000000 ) ) ;
#42 = PLANE ( 'NONE',  #1 ) ;
#43 = DIRECTION ( 'NONE',  ( 0.0000000000000000000, 0.0000000000000000000, -1.000000000000000000 ) ) ;
#44 = EDGE_LOOP ( 'NONE', ( #102, #106, #107, #105 ) ) ;
#45 = EDGE_LOOP ( 'NONE', ( #122, #121 ) ) ;
#46 = DIRECTION ( 'NONE',  ( 0.0000000000000000000, 0.0000000000000000000, 1.000000000000000000 ) ) ;
#47 = EDGE_LOOP ( 'NONE', ( #101, #129, #103, #128 ) ) ;
#48 = DIRECTION ( 'NONE',  ( 0.0000000000000000000, 0.0000000000000000000, -1.000000000000000000 ) ) ;
#49 = DIRECTION ( 'NONE',  ( -0.0000000000000000000, -1.000000000000000000, -0.0000000000000000000 ) ) ;
#50 = DIRECTION ( 'NONE',  ( -0.0000000000000000000, -1.000000000000000000, -0.0000000000000000000 ) ) ;
#51 = CARTESIAN_POINT ( 'NONE',  ( 0.0000000000000000000, 0.004999999999999987100, 0.0000000000000000000 ) ) ;
#52 = CARTESIAN_POINT ( 'NONE',  ( 0.0000000000000000000, 0.0000000000000000000, -0.08250000000000003200 ) ) ;
#53 = EDGE_LOOP ( 'NONE', ( #126, #125, #124, #127 ) ) ;
#54 =( NAMED_UNIT ( * ) SI_UNIT ( $, .STERADIAN. ) SOLID_ANGLE_UNIT ( ) );
#55 = LINE ( 'NONE', #52, #266 ) ;
#56 = DIRECTION ( 'NONE',  ( 7.279191103980813200E-017, 0.8041761414663256600, -0.5943910610838054600 ) ) ;
#57 = DIRECTION ( 'NONE',  ( 0.0000000000000000000, 1.000000000000000000, 0.0000000000000000000 ) ) ;
#58 = LINE ( 'NONE', #59, #273 ) ;
#59 = CARTESIAN_POINT ( 'NONE',  ( 1.010333609296566800E-017, 0.004999999999999987100, -0.08250000000000003200 ) ) ;
#60 = CARTESIAN_POINT ( 'NONE',  ( 0.0000000000000000000, 0.0000000000000000000, 0.0000000000000000000 ) ) ;
#61 = EDGE_LOOP ( 'NONE', ( #117, #116 ) ) ;
#62 = DIRECTION ( 'NONE',  ( -0.0000000000000000000, -1.000000000000000000, -0.0000000000000000000 ) ) ;
#63 = CARTESIAN_POINT ( 'NONE',  ( 0.0000000000000000000, 0.06250000000000000000, 0.0000000000000000000 ) ) ;
#64 = DIRECTION ( 'NONE',  ( 0.0000000000000000000, 0.0000000000000000000, -1.000000000000000000 ) ) ;
#65 =( NAMED_UNIT ( * ) PLANE_ANGLE_UNIT ( ) SI_UNIT ( $, .RADIAN. ) );
#66 =( CONVERSION_BASED_UNIT ( 'INCH', #271 ) LENGTH_UNIT ( ) NAMED_UNIT ( #132 ) );
#67 =( LENGTH_UNIT ( ) NAMED_UNIT ( * ) SI_UNIT ( $, .METRE. ) );
#68 = PRESENTATION_STYLE_ASSIGNMENT (( #69 ) ) ;
#69 = SURFACE_STYLE_USAGE ( .BOTH. , #70 ) ;
#70 = SURFACE_SIDE_STYLE ('',( #71 ) ) ;
#71 = SURFACE_STYLE_FILL_AREA ( #72 ) ;
#72 = FILL_AREA_STYLE ('',( #73 ) ) ;
#73 = FILL_AREA_STYLE_COLOUR ( '', #176 ) ;
#74 = CARTESIAN_POINT ( 'NONE',  ( 0.0000000000000000000, 0.004999999999999987100, 0.08250000000000003200 ) ) ;
#75 = CARTESIAN_POINT ( 'NONE',  ( 1.010333609296566800E-017, 0.0000000000000000000, 0.08250000000000003200 ) ) ;
#76 = CARTESIAN_POINT ( 'NONE',  ( 2.296212748401286800E-017, 0.06250000000000000000, 0.1874999999999999700 ) ) ;
#77 = CARTESIAN_POINT ( 'NONE',  ( 0.0000000000000000000, 0.0000000000000000000, -0.1874999999999999700 ) ) ;
#78 = CARTESIAN_POINT ( 'NONE',  ( 0.0000000000000000000, 0.06250000000000000000, 0.1250000000000000000 ) ) ;
#79 = CARTESIAN_POINT ( 'NONE',  ( 1.270571054115379100E-017, 0.004999999999999987100, -0.08250000000000003200 ) ) ;
#80 = CARTESIAN_POINT ( 'NONE',  ( 0.0000000000000000000, 0.0000000000000000000, -0.08250000000000003200 ) ) ;
#81 = CARTESIAN_POINT ( 'NONE',  ( 1.530808498934191500E-017, 0.06250000000000000000, -0.1250000000000000000 ) ) ;
#82 = CARTESIAN_POINT ( 'NONE',  ( 0.0000000000000000000, 0.06250000000000000000, -0.1874999999999999700 ) ) ;
#83 = CARTESIAN_POINT ( 'NONE',  ( 2.296212748401286800E-017, 0.0000000000000000000, 0.1874999999999999700 ) ) ;
#84 = VERTEX_POINT ( 'NONE', #83 ) ;
#85 = VERTEX_POINT ( 'NONE', #82 ) ;
#86 = VERTEX_POINT ( 'NONE', #81 ) ;
#87 = EDGE_LOOP ( 'NONE', ( #118, #119, #120, #108 ) ) ;
#88 = EDGE_LOOP ( 'NONE', ( #104, #100, #96, #99 ) ) ;
#89 = EDGE_LOOP ( 'NONE', ( #111, #110 ) ) ;
#90 = VERTEX_POINT ( 'NONE', #80 ) ;
#91 = VERTEX_POINT ( 'NONE', #79 ) ;
#92 = EDGE_LOOP ( 'NONE', ( #109, #123 ) ) ;
#93 = VERTEX_POINT ( 'NONE', #78 ) ;
#94 = VERTEX_POINT ( 'NONE', #77 ) ;
#95 = VERTEX_POINT ( 'NONE', #76 ) ;
#96 = ORIENTED_EDGE ( 'NONE', *, *, #142, .F. ) ;
#97 = VERTEX_POINT ( 'NONE', #75 ) ;
#98 = VERTEX_POINT ( 'NONE', #74 ) ;
#99 = ORIENTED_EDGE ( 'NONE', *, *, #175, .F. ) ;
#100 = ORIENTED_EDGE ( 'NONE', *, *, #143, .T. ) ;
#101 = ORIENTED_EDGE ( 'NONE', *, *, #143, .F. ) ;
#102 = ORIENTED_EDGE ( 'NONE', *, *, #153, .F. ) ;
#103 = ORIENTED_EDGE ( 'NONE', *, *, #175, .T. ) ;
#104 = ORIENTED_EDGE ( 'NONE', *, *, #153, .T. ) ;
#105 = ORIENTED_EDGE ( 'NONE', *, *, #144, .F. ) ;
#106 = ORIENTED_EDGE ( 'NONE', *, *, #154, .T. ) ;
#107 = ORIENTED_EDGE ( 'NONE', *, *, #145, .T. ) ;
#108 = ORIENTED_EDGE ( 'NONE', *, *, #155, .F. ) ;
#109 = ORIENTED_EDGE ( 'NONE', *, *, #160, .F. ) ;
#110 = ORIENTED_EDGE ( 'NONE', *, *, #162, .T. ) ;
#111 = ORIENTED_EDGE ( 'NONE', *, *, #142, .T. ) ;
#112 = ORIENTED_EDGE ( 'NONE', *, *, #158, .F. ) ;
#113 = ORIENTED_EDGE ( 'NONE', *, *, #157, .T. ) ;
#114 = ORIENTED_EDGE ( 'NONE', *, *, #159, .F. ) ;
#115 = ORIENTED_EDGE ( 'NONE', *, *, #155, .T. ) ;
#116 = ORIENTED_EDGE ( 'NONE', *, *, #158, .T. ) ;
#117 = ORIENTED_EDGE ( 'NONE', *, *, #156, .T. ) ;
#118 = ORIENTED_EDGE ( 'NONE', *, *, #160, .T. ) ;
#119 = ORIENTED_EDGE ( 'NONE', *, *, #159, .T. ) ;
#120 = ORIENTED_EDGE ( 'NONE', *, *, #156, .F. ) ;
#121 = ORIENTED_EDGE ( 'NONE', *, *, #145, .F. ) ;
#122 = ORIENTED_EDGE ( 'NONE', *, *, #161, .F. ) ;
#123 = ORIENTED_EDGE ( 'NONE', *, *, #157, .F. ) ;
#124 = ORIENTED_EDGE ( 'NONE', *, *, #144, .T. ) ;
#125 = ORIENTED_EDGE ( 'NONE', *, *, #163, .F. ) ;
#126 = ORIENTED_EDGE ( 'NONE', *, *, #154, .F. ) ;
#127 = ORIENTED_EDGE ( 'NONE', *, *, #161, .T. ) ;
#128 = ORIENTED_EDGE ( 'NONE', *, *, #162, .F. ) ;
#129 = ORIENTED_EDGE ( 'NONE', *, *, #163, .T. ) ;
#130 = EDGE_LOOP ( 'NONE', ( #114, #113, #115, #112 ) ) ;
#131 = DIMENSIONAL_EXPONENTS ( 1.000000000000000000, 0.0000000000000000000, 0.0000000000000000000, 0.0000000000000000000, 0.0000000000000000000, 0.0000000000000000000, 0.0000000000000000000 ) ;
#132 = DIMENSIONAL_EXPONENTS ( 1.000000000000000000, 0.0000000000000000000, 0.0000000000000000000, 0.0000000000000000000, 0.0000000000000000000, 0.0000000000000000000, 0.0000000000000000000 ) ;
#133 = DIMENSIONAL_EXPONENTS ( 1.000000000000000000, 0.0000000000000000000, 0.0000000000000000000, 0.0000000000000000000, 0.0000000000000000000, 0.0000000000000000000, 0.0000000000000000000 ) ;
#134 = PRODUCT ( 'DH063C-F', 'DH063C-F', '', ( #186 ) ) ;
#135 = MANIFOLD_SOLID_BREP ( 'Revolve1', #272 ) ;
#136 = PRODUCT_DEFINITION_CONTEXT ( 'detailed design', #262, 'design' ) ;
#137 = PRODUCT_DEFINITION_SHAPE ( 'NONE', 'NONE',  #166 ) ;
#138 = CIRCLE ( 'NONE', #7, 0.1874999999999999700 ) ;
#139 = CIRCLE ( 'NONE', #264, 0.08250000000000003200 ) ;
#140 = CIRCLE ( 'NONE', #263, 0.1250000000000000000 ) ;
#141 = CIRCLE ( 'NONE', #26, 0.08250000000000003200 ) ;
#142 = EDGE_CURVE ( 'NONE', #93, #86, #140, .T. ) ;
#143 = EDGE_CURVE ( 'NONE', #91, #86, #58, .T. ) ;
#144 = EDGE_CURVE ( 'NONE', #91, #90, #55, .T. ) ;
#145 = EDGE_CURVE ( 'NONE', #97, #90, #139, .T. ) ;
#146 = ADVANCED_FACE ( 'NONE', ( #268 ), #165, .F. ) ;
#147 = ADVANCED_FACE ( 'NONE', ( #28 ), #37, .F. ) ;
#148 = ADVANCED_FACE ( 'NONE', ( #2, #23 ), #42, .F. ) ;
#149 = ADVANCED_FACE ( 'NONE', ( #6 ), #29, .T. ) ;
#150 = ADVANCED_FACE ( 'NONE', ( #13, #21 ), #258, .T. ) ;
#151 = ADVANCED_FACE ( 'NONE', ( #16 ), #172, .F. ) ;
#152 = ADVANCED_FACE ( 'NONE', ( #20 ), #27, .F. ) ;
#153 = EDGE_CURVE ( 'NONE', #98, #91, #171, .T. ) ;
#154 = EDGE_CURVE ( 'NONE', #98, #97, #230, .T. ) ;
#155 = EDGE_CURVE ( 'NONE', #85, #94, #239, .T. ) ;
#156 = EDGE_CURVE ( 'NONE', #94, #84, #174, .T. ) ;
#157 = EDGE_CURVE ( 'NONE', #95, #85, #173, .T. ) ;
#158 = EDGE_CURVE ( 'NONE', #84, #94, #138, .T. ) ;
#159 = EDGE_CURVE ( 'NONE', #95, #84, #225, .T. ) ;
#160 = EDGE_CURVE ( 'NONE', #85, #95, #170, .T. ) ;
#161 = EDGE_CURVE ( 'NONE', #90, #97, #167, .T. ) ;
#162 = EDGE_CURVE ( 'NONE', #86, #93, #169, .T. ) ;
#163 = EDGE_CURVE ( 'NONE', #91, #98, #141, .T. ) ;
#164 = ADVANCED_FACE ( 'NONE', ( #30 ), #3, .T. ) ;
#165 = CONICAL_SURFACE ( 'NONE', #267, 0.08250000000000003200, 0.6365082157879506900 ) ;
#166 = PRODUCT_DEFINITION ( 'UNKNOWN', '', #4, #136 ) ;
#167 = CIRCLE ( 'NONE', #38, 0.08250000000000003200 ) ;
#168 = COLOUR_RGB ( '',0.5686274509803921400, 0.5686274509803921400, 0.5882352941176470800 ) ;
#169 = CIRCLE ( 'NONE', #36, 0.1250000000000000000 ) ;
#170 = CIRCLE ( 'NONE', #5, 0.1874999999999999700 ) ;
#171 = CIRCLE ( 'NONE', #8, 0.08250000000000003200 ) ;
#172 = CONICAL_SURFACE ( 'NONE', #22, 0.08250000000000003200, 0.6365082157879506900 ) ;
#173 = CIRCLE ( 'NONE', #25, 0.1874999999999999700 ) ;
#174 = CIRCLE ( 'NONE', #18, 0.1874999999999999700 ) ;
#175 = EDGE_CURVE ( 'NONE', #98, #93, #208, .T. ) ;
#176 = COLOUR_RGB ( '',0.5686274509803921400, 0.5686274509803921400, 0.5882352941176470800 ) ;
#177 = PRODUCT_RELATED_PRODUCT_CATEGORY ( 'part', '', ( #134 ) ) ;
#178 =( GEOMETRIC_REPRESENTATION_CONTEXT ( 3 ) GLOBAL_UNCERTAINTY_ASSIGNED_CONTEXT ( ( #182 ) ) GLOBAL_UNIT_ASSIGNED_CONTEXT ( ( #66, #65, #54 ) ) REPRESENTATION_CONTEXT ( 'NONE', 'WORKASPACE' ) );
#179 =( GEOMETRIC_REPRESENTATION_CONTEXT ( 3 ) GLOBAL_UNCERTAINTY_ASSIGNED_CONTEXT ( ( #184 ) ) GLOBAL_UNIT_ASSIGNED_CONTEXT ( ( #204, #203, #202 ) ) REPRESENTATION_CONTEXT ( 'NONE', 'WORKASPACE' ) );
#180 =( GEOMETRIC_REPRESENTATION_CONTEXT ( 3 ) GLOBAL_UNCERTAINTY_ASSIGNED_CONTEXT ( ( #181 ) ) GLOBAL_UNIT_ASSIGNED_CONTEXT ( ( #193, #192, #191 ) ) REPRESENTATION_CONTEXT ( 'NONE', 'WORKASPACE' ) );
#181 = UNCERTAINTY_MEASURE_WITH_UNIT (LENGTH_MEASURE( 1.000000000000000100E-005 ), #193, 'distance_accuracy_value', 'NONE');
#182 = UNCERTAINTY_MEASURE_WITH_UNIT (LENGTH_MEASURE( 1.000000000000000100E-005 ), #66, 'distance_accuracy_value', 'NONE');
#183 = ADVANCED_BREP_SHAPE_REPRESENTATION ( 'DH063C-F', ( #135, #24 ), #179 ) ;
#184 = UNCERTAINTY_MEASURE_WITH_UNIT (LENGTH_MEASURE( 1.000000000000000100E-005 ), #204, 'distance_accuracy_value', 'NONE');
#185 = APPLICATION_PROTOCOL_DEFINITION ( 'draft international standard', 'automotive_design', 1998, #262 ) ;
#186 = PRODUCT_CONTEXT ( 'NONE', #261, 'mechanical' ) ;
#187 = SHAPE_DEFINITION_REPRESENTATION ( #137, #183 ) ;
#188 = DIRECTION ( 'NONE',  ( 1.000000000000000000, 0.0000000000000000000, 0.0000000000000000000 ) ) ;
#189 = DIRECTION ( 'NONE',  ( 0.0000000000000000000, 0.0000000000000000000, 1.000000000000000000 ) ) ;
#190 = CARTESIAN_POINT ( 'NONE',  ( 0.0000000000000000000, 0.0000000000000000000, 0.0000000000000000000 ) ) ;
#191 =( NAMED_UNIT ( * ) SI_UNIT ( $, .STERADIAN. ) SOLID_ANGLE_UNIT ( ) );
#192 =( NAMED_UNIT ( * ) PLANE_ANGLE_UNIT ( ) SI_UNIT ( $, .RADIAN. ) );
#193 =( CONVERSION_BASED_UNIT ( 'INCH', #17 ) LENGTH_UNIT ( ) NAMED_UNIT ( #131 ) );
#194 =( LENGTH_UNIT ( ) NAMED_UNIT ( * ) SI_UNIT ( $, .METRE. ) );
#195 = PRESENTATION_STYLE_ASSIGNMENT (( #196 ) ) ;
#196 = SURFACE_STYLE_USAGE ( .BOTH. , #197 ) ;
#197 = SURFACE_SIDE_STYLE ('',( #198 ) ) ;
#198 = SURFACE_STYLE_FILL_AREA ( #199 ) ;
#199 = FILL_AREA_STYLE ('',( #200 ) ) ;
#200 = FILL_AREA_STYLE_COLOUR ( '', #168 ) ;
#201 = APPLICATION_PROTOCOL_DEFINITION ( 'draft international standard', 'automotive_design', 1998, #261 ) ;
#202 =( NAMED_UNIT ( * ) SI_UNIT ( $, .STERADIAN. ) SOLID_ANGLE_UNIT ( ) );
#203 =( NAMED_UNIT ( * ) PLANE_ANGLE_UNIT ( ) SI_UNIT ( $, .RADIAN. ) );
#204 =( CONVERSION_BASED_UNIT ( 'INCH', #10 ) LENGTH_UNIT ( ) NAMED_UNIT ( #133 ) );
#205 =( LENGTH_UNIT ( ) NAMED_UNIT ( * ) SI_UNIT ( $, .METRE. ) );
#206 = DIRECTION ( 'NONE',  ( 0.0000000000000000000, 0.8041761414663256600, 0.5943910610838054600 ) ) ;
#207 = CARTESIAN_POINT ( 'NONE',  ( 0.0000000000000000000, 0.004999999999999987100, 0.08250000000000003200 ) ) ;
#208 = LINE ( 'NONE', #207, #15 ) ;
#209 = DIRECTION ( 'NONE',  ( 0.0000000000000000000, 0.0000000000000000000, -1.000000000000000000 ) ) ;
#210 = DIRECTION ( 'NONE',  ( -0.0000000000000000000, -1.000000000000000000, -0.0000000000000000000 ) ) ;
#211 = CARTESIAN_POINT ( 'NONE',  ( 0.0000000000000000000, 0.0000000000000000000, 0.0000000000000000000 ) ) ;
#212 = DIRECTION ( 'NONE',  ( 0.0000000000000000000, 0.0000000000000000000, -1.000000000000000000 ) ) ;
#213 = DIRECTION ( 'NONE',  ( -0.0000000000000000000, -1.000000000000000000, -0.0000000000000000000 ) ) ;
#214 = CARTESIAN_POINT ( 'NONE',  ( 0.0000000000000000000, 0.004999999999999987100, 0.0000000000000000000 ) ) ;
#215 = DIRECTION ( 'NONE',  ( 0.0000000000000000000, 0.0000000000000000000, -1.000000000000000000 ) ) ;
#216 = DIRECTION ( 'NONE',  ( -0.0000000000000000000, -1.000000000000000000, -0.0000000000000000000 ) ) ;
#217 = CARTESIAN_POINT ( 'NONE',  ( 0.0000000000000000000, 0.06250000000000000000, 0.0000000000000000000 ) ) ;
#218 = DIRECTION ( 'NONE',  ( 0.0000000000000000000, 0.0000000000000000000, -1.000000000000000000 ) ) ;
#219 = DIRECTION ( 'NONE',  ( -0.0000000000000000000, -1.000000000000000000, -0.0000000000000000000 ) ) ;
#220 = CARTESIAN_POINT ( 'NONE',  ( 0.0000000000000000000, 0.0000000000000000000, 0.0000000000000000000 ) ) ;
#221 = DIRECTION ( 'NONE',  ( 0.0000000000000000000, 0.0000000000000000000, -1.000000000000000000 ) ) ;
#222 = DIRECTION ( 'NONE',  ( -0.0000000000000000000, -1.000000000000000000, -0.0000000000000000000 ) ) ;
#223 = DIRECTION ( 'NONE',  ( -0.0000000000000000000, -1.000000000000000000, -0.0000000000000000000 ) ) ;
#224 = CARTESIAN_POINT ( 'NONE',  ( 2.296212748401286800E-017, 0.0000000000000000000, 0.1874999999999999700 ) ) ;
#225 = LINE ( 'NONE', #224, #12 ) ;
#226 = CARTESIAN_POINT ( 'NONE',  ( 0.0000000000000000000, 0.06250000000000000000, 0.0000000000000000000 ) ) ;
#227 = DIRECTION ( 'NONE',  ( 0.0000000000000000000, 0.0000000000000000000, -1.000000000000000000 ) ) ;
#228 = CARTESIAN_POINT ( 'NONE',  ( 0.0000000000000000000, 0.0000000000000000000, -0.1874999999999999700 ) ) ;
#229 = DIRECTION ( 'NONE',  ( -0.0000000000000000000, -1.000000000000000000, -0.0000000000000000000 ) ) ;
#230 = LINE ( 'NONE', #246, #31 ) ;
#231 = CARTESIAN_POINT ( 'NONE',  ( 0.0000000000000000000, 0.0000000000000000000, 0.0000000000000000000 ) ) ;
#232 = DIRECTION ( 'NONE',  ( 0.0000000000000000000, 0.0000000000000000000, -1.000000000000000000 ) ) ;
#233 = CARTESIAN_POINT ( 'NONE',  ( 0.0000000000000000000, 0.0000000000000000000, 0.0000000000000000000 ) ) ;
#234 = DIRECTION ( 'NONE',  ( -0.0000000000000000000, -1.000000000000000000, -0.0000000000000000000 ) ) ;
#235 = CARTESIAN_POINT ( 'NONE',  ( 0.0000000000000000000, 0.004999999999999987100, 0.0000000000000000000 ) ) ;
#236 = DIRECTION ( 'NONE',  ( 0.0000000000000000000, 0.0000000000000000000, -1.000000000000000000 ) ) ;
#237 = DIRECTION ( 'NONE',  ( -0.0000000000000000000, -1.000000000000000000, -0.0000000000000000000 ) ) ;
#238 = DIRECTION ( 'NONE',  ( 0.0000000000000000000, 1.000000000000000000, 0.0000000000000000000 ) ) ;
#239 = LINE ( 'NONE', #228, #9 ) ;
#240 = DIRECTION ( 'NONE',  ( -0.0000000000000000000, -1.000000000000000000, -0.0000000000000000000 ) ) ;
#241 = DIRECTION ( 'NONE',  ( -0.0000000000000000000, -1.000000000000000000, -0.0000000000000000000 ) ) ;
#242 = DIRECTION ( 'NONE',  ( 0.0000000000000000000, 0.0000000000000000000, -1.000000000000000000 ) ) ;
#243 = CARTESIAN_POINT ( 'NONE',  ( 0.0000000000000000000, 0.06250000000000000000, 0.0000000000000000000 ) ) ;
#244 = DIRECTION ( 'NONE',  ( -0.0000000000000000000, -1.000000000000000000, -0.0000000000000000000 ) ) ;
#245 = DIRECTION ( 'NONE',  ( 0.0000000000000000000, 1.000000000000000000, 0.0000000000000000000 ) ) ;
#246 = CARTESIAN_POINT ( 'NONE',  ( 1.010333609296566800E-017, 0.0000000000000000000, 0.08250000000000003200 ) ) ;
#247 = DIRECTION ( 'NONE',  ( 0.0000000000000000000, -0.0000000000000000000, 1.000000000000000000 ) ) ;
#248 = DIRECTION ( 'NONE',  ( 0.0000000000000000000, 0.0000000000000000000, 1.000000000000000000 ) ) ;
#249 = CARTESIAN_POINT ( 'NONE',  ( 0.0000000000000000000, 0.06250000000000000000, 0.0000000000000000000 ) ) ;
#250 = DIRECTION ( 'NONE',  ( 0.0000000000000000000, -0.0000000000000000000, 1.000000000000000000 ) ) ;
#251 = CARTESIAN_POINT ( 'NONE',  ( 0.0000000000000000000, 0.004999999999999987100, 0.0000000000000000000 ) ) ;
#252 = DIRECTION ( 'NONE',  ( 0.0000000000000000000, 0.0000000000000000000, -1.000000000000000000 ) ) ;
#253 = DIRECTION ( 'NONE',  ( -0.0000000000000000000, -1.000000000000000000, -0.0000000000000000000 ) ) ;
#254 = CARTESIAN_POINT ( 'NONE',  ( 0.0000000000000000000, 0.0000000000000000000, 0.0000000000000000000 ) ) ;
#255 = CARTESIAN_POINT ( 'NONE',  ( 0.0000000000000000000, 0.0000000000000000000, 0.0000000000000000000 ) ) ;
#256 = DIRECTION ( 'NONE',  ( -0.0000000000000000000, -1.000000000000000000, -0.0000000000000000000 ) ) ;
#257 = DIRECTION ( 'NONE',  ( 0.0000000000000000000, 1.000000000000000000, 0.0000000000000000000 ) ) ;
#258 = PLANE ( 'NONE',  #39 ) ;
#259 = CARTESIAN_POINT ( 'NONE',  ( 0.0000000000000000000, 0.0000000000000000000, 0.0000000000000000000 ) ) ;
#260 = DIRECTION ( 'NONE',  ( 0.0000000000000000000, 0.0000000000000000000, -1.000000000000000000 ) ) ;
#261 = APPLICATION_CONTEXT ( 'automotive_design' ) ;
#262 = APPLICATION_CONTEXT ( 'automotive_design' ) ;
#263 = AXIS2_PLACEMENT_3D ( 'NONE', #63, #62, #64 ) ;
#264 = AXIS2_PLACEMENT_3D ( 'NONE', #60, #49, #48 ) ;
#265 = MECHANICAL_DESIGN_GEOMETRIC_PRESENTATION_REPRESENTATION (  '', ( #270 ), #178 ) ;
#266 = VECTOR ( 'NONE', #50, 39.37007874015748100 ) ;
#267 = AXIS2_PLACEMENT_3D ( 'NONE', #51, #57, #46 ) ;
#268 = FACE_OUTER_BOUND ( 'NONE', #47, .T. ) ;
#269 = PRESENTATION_LAYER_ASSIGNMENT (  '', '', ( #270 ) ) ;
#270 = STYLED_ITEM ( 'NONE', ( #68 ), #135 ) ;
#271 = LENGTH_MEASURE_WITH_UNIT ( LENGTH_MEASURE( 0.02539999999999999900 ), #67 );
#272 = CLOSED_SHELL ( 'NONE', ( #164, #152, #151, #146, #147, #148, #149, #150 ) ) ;
#273 = VECTOR ( 'NONE', #56, 39.37007874015748100 ) ;
ENDSEC;
END-ISO-10303-21;
