ISO-10303-21;
HEADER;
FILE_DESCRIPTION (( 'STEP AP214' ),
    '1' );
FILE_NAME ('DH125AE-FN-N42.step',
    '2012-04-20T20:56:39',
    ( '' ),
    ( '' ),
    'SwSTEP 2.0',
    'SolidWorks 2012',
    '' );
FILE_SCHEMA (( 'AUTOMOTIVE_DESIGN' ));
ENDSEC;

DATA;
#1 = EDGE_LOOP ( 'NONE', ( #69, #57, #70, #58 ) ) ;
#2 = EDGE_LOOP ( 'NONE', ( #59, #61, #60, #62 ) ) ;
#3 = EDGE_LOOP ( 'NONE', ( #64, #25 ) ) ;
#4 = EDGE_LOOP ( 'NONE', ( #26, #27 ) ) ;
#5 = EDGE_LOOP ( 'NONE', ( #28, #50 ) ) ;
#6 = EDGE_LOOP ( 'NONE', ( #24, #51 ) ) ;
#7 = EDGE_LOOP ( 'NONE', ( #52, #53, #63, #49 ) ) ;
#8 = EDGE_LOOP ( 'NONE', ( #10, #11, #12, #9 ) ) ;
#9 = ORIENTED_EDGE ( 'NONE', *, *, #128, .T. ) ;
#10 = ORIENTED_EDGE ( 'NONE', *, *, #115, .F. ) ;
#11 = ORIENTED_EDGE ( 'NONE', *, *, #127, .F. ) ;
#12 = ORIENTED_EDGE ( 'NONE', *, *, #173, .T. ) ;
#13 = EDGE_LOOP ( 'NONE', ( #65, #67, #66, #68 ) ) ;
#14 = VERTEX_POINT ( 'NONE', #73 ) ;
#15 = VERTEX_POINT ( 'NONE', #74 ) ;
#16 = VERTEX_POINT ( 'NONE', #75 ) ;
#17 = VERTEX_POINT ( 'NONE', #76 ) ;
#18 = VERTEX_POINT ( 'NONE', #77 ) ;
#19 = VERTEX_POINT ( 'NONE', #78 ) ;
#20 = VERTEX_POINT ( 'NONE', #79 ) ;
#21 = VERTEX_POINT ( 'NONE', #80 ) ;
#22 = VERTEX_POINT ( 'NONE', #81 ) ;
#23 = VERTEX_POINT ( 'NONE', #82 ) ;
#24 = ORIENTED_EDGE ( 'NONE', *, *, #172, .F. ) ;
#25 = ORIENTED_EDGE ( 'NONE', *, *, #37, .F. ) ;
#26 = ORIENTED_EDGE ( 'NONE', *, *, #171, .T. ) ;
#27 = ORIENTED_EDGE ( 'NONE', *, *, #33, .T. ) ;
#28 = ORIENTED_EDGE ( 'NONE', *, *, #129, .T. ) ;
#29 =( GEOMETRIC_REPRESENTATION_CONTEXT ( 3 ) GLOBAL_UNCERTAINTY_ASSIGNED_CONTEXT ( ( #179 ) ) GLOBAL_UNIT_ASSIGNED_CONTEXT ( ( #184, #185, #186 ) ) REPRESENTATION_CONTEXT ( 'NONE', 'WORKASPACE' ) );
#30 =( GEOMETRIC_REPRESENTATION_CONTEXT ( 3 ) GLOBAL_UNCERTAINTY_ASSIGNED_CONTEXT ( ( #180 ) ) GLOBAL_UNIT_ASSIGNED_CONTEXT ( ( #107, #108, #109 ) ) REPRESENTATION_CONTEXT ( 'NONE', 'WORKASPACE' ) );
#31 =( GEOMETRIC_REPRESENTATION_CONTEXT ( 3 ) GLOBAL_UNCERTAINTY_ASSIGNED_CONTEXT ( ( #178 ) ) GLOBAL_UNIT_ASSIGNED_CONTEXT ( ( #214, #215, #216 ) ) REPRESENTATION_CONTEXT ( 'NONE', 'WORKASPACE' ) );
#32 = EDGE_CURVE ( 'NONE', #19, #17, #83, .T. ) ;
#33 = EDGE_CURVE ( 'NONE', #19, #15, #42, .T. ) ;
#34 = ADVANCED_FACE ( 'NONE', ( #267 ), #41, .F. ) ;
#35 = ADVANCED_FACE ( 'NONE', ( #262 ), #271, .T. ) ;
#36 = ADVANCED_FACE ( 'NONE', ( #270 ), #265, .F. ) ;
#37 = EDGE_CURVE ( 'NONE', #21, #22, #38, .T. ) ;
#38 = CIRCLE ( 'NONE', #268, 0.1250000000000000000 ) ;
#39 = CIRCLE ( 'NONE', #120, 0.06249999999999996500 ) ;
#40 = CIRCLE ( 'NONE', #119, 0.1250000000000000000 ) ;
#41 = CONICAL_SURFACE ( 'NONE', #259, 0.1250000000000000000, 0.8726646259971647700 ) ;
#42 = CIRCLE ( 'NONE', #266, 0.3125000000000000000 ) ;
#43 = CIRCLE ( 'NONE', #269, 0.06249999999999997200 ) ;
#44 = CIRCLE ( 'NONE', #117, 0.06249999999999997200 ) ;
#45 = DIMENSIONAL_EXPONENTS ( 1.000000000000000000, 0.0000000000000000000, 0.0000000000000000000, 0.0000000000000000000, 0.0000000000000000000, 0.0000000000000000000, 0.0000000000000000000 ) ;
#46 = DIMENSIONAL_EXPONENTS ( 1.000000000000000000, 0.0000000000000000000, 0.0000000000000000000, 0.0000000000000000000, 0.0000000000000000000, 0.0000000000000000000, 0.0000000000000000000 ) ;
#47 = PRODUCT ( 'DH125AE-FN-N42', 'DH125AE-FN-N42', '', ( #221 ) ) ;
#48 = DIMENSIONAL_EXPONENTS ( 1.000000000000000000, 0.0000000000000000000, 0.0000000000000000000, 0.0000000000000000000, 0.0000000000000000000, 0.0000000000000000000, 0.0000000000000000000 ) ;
#49 = ORIENTED_EDGE ( 'NONE', *, *, #127, .T. ) ;
#50 = ORIENTED_EDGE ( 'NONE', *, *, #175, .T. ) ;
#51 = ORIENTED_EDGE ( 'NONE', *, *, #169, .F. ) ;
#52 = ORIENTED_EDGE ( 'NONE', *, *, #174, .F. ) ;
#53 = ORIENTED_EDGE ( 'NONE', *, *, #129, .F. ) ;
#54 = ORIENTED_EDGE ( 'NONE', *, *, #130, .F. ) ;
#55 = ORIENTED_EDGE ( 'NONE', *, *, #37, .T. ) ;
#56 = ORIENTED_EDGE ( 'NONE', *, *, #115, .T. ) ;
#57 = ORIENTED_EDGE ( 'NONE', *, *, #32, .T. ) ;
#58 = ORIENTED_EDGE ( 'NONE', *, *, #170, .F. ) ;
#59 = ORIENTED_EDGE ( 'NONE', *, *, #32, .F. ) ;
#60 = ORIENTED_EDGE ( 'NONE', *, *, #170, .T. ) ;
#61 = ORIENTED_EDGE ( 'NONE', *, *, #171, .F. ) ;
#62 = ORIENTED_EDGE ( 'NONE', *, *, #172, .T. ) ;
#63 = ORIENTED_EDGE ( 'NONE', *, *, #176, .T. ) ;
#64 = ORIENTED_EDGE ( 'NONE', *, *, #128, .F. ) ;
#65 = ORIENTED_EDGE ( 'NONE', *, *, #175, .F. ) ;
#66 = ORIENTED_EDGE ( 'NONE', *, *, #130, .T. ) ;
#67 = ORIENTED_EDGE ( 'NONE', *, *, #174, .T. ) ;
#68 = ORIENTED_EDGE ( 'NONE', *, *, #176, .F. ) ;
#69 = ORIENTED_EDGE ( 'NONE', *, *, #33, .F. ) ;
#70 = ORIENTED_EDGE ( 'NONE', *, *, #169, .T. ) ;
#71 = EDGE_LOOP ( 'NONE', ( #54, #56, #55, #72 ) ) ;
#72 = ORIENTED_EDGE ( 'NONE', *, *, #173, .F. ) ;
#73 = CARTESIAN_POINT ( 'NONE',  ( 7.654042494670954500E-018, 1.707404996040164500E-017, -0.06249999999999996500 ) ) ;
#74 = CARTESIAN_POINT ( 'NONE',  ( 0.0000000000000000000, 0.1250000000000000000, -0.3125000000000000000 ) ) ;
#75 = CARTESIAN_POINT ( 'NONE',  ( 0.0000000000000000000, 1.707404996040164500E-017, 0.06249999999999996500 ) ) ;
#76 = CARTESIAN_POINT ( 'NONE',  ( 3.827021247335478900E-017, 0.0000000000000000000, 0.3125000000000000000 ) ) ;
#77 = CARTESIAN_POINT ( 'NONE',  ( 7.654042494670956000E-018, 0.07255627305141997000, -0.06249999999999997900 ) ) ;
#78 = CARTESIAN_POINT ( 'NONE',  ( 3.827021247335478900E-017, 0.1250000000000000000, 0.3125000000000000000 ) ) ;
#79 = CARTESIAN_POINT ( 'NONE',  ( 0.0000000000000000000, 0.07255627305141997000, 0.06249999999999997200 ) ) ;
#80 = CARTESIAN_POINT ( 'NONE',  ( 1.530808498934191500E-017, 0.1250000000000000000, -0.1250000000000000000 ) ) ;
#81 = CARTESIAN_POINT ( 'NONE',  ( 0.0000000000000000000, 0.1250000000000000000, 0.1250000000000000000 ) ) ;
#82 = CARTESIAN_POINT ( 'NONE',  ( 0.0000000000000000000, 0.0000000000000000000, -0.3125000000000000000 ) ) ;
#83 = LINE ( 'NONE', #84, #260 ) ;
#84 = CARTESIAN_POINT ( 'NONE',  ( 3.827021247335478900E-017, 0.1250000000000000000, 0.3125000000000000000 ) ) ;
#85 = CARTESIAN_POINT ( 'NONE',  ( 0.0000000000000000000, 0.1250000000000000000, 0.0000000000000000000 ) ) ;
#86 = LINE ( 'NONE', #87, #154 ) ;
#87 = CARTESIAN_POINT ( 'NONE',  ( 0.0000000000000000000, 0.1250000000000000000, -0.3125000000000000000 ) ) ;
#88 = DIRECTION ( 'NONE',  ( -0.0000000000000000000, -1.000000000000000000, -0.0000000000000000000 ) ) ;
#89 = DIRECTION ( 'NONE',  ( 0.0000000000000000000, 1.000000000000000000, 0.0000000000000000000 ) ) ;
#90 = DIRECTION ( 'NONE',  ( 0.0000000000000000000, 0.0000000000000000000, 1.000000000000000000 ) ) ;
#91 = CARTESIAN_POINT ( 'NONE',  ( 0.0000000000000000000, 0.0000000000000000000, 0.0000000000000000000 ) ) ;
#92 = DIRECTION ( 'NONE',  ( 0.0000000000000000000, 1.000000000000000000, 0.0000000000000000000 ) ) ;
#93 = DIRECTION ( 'NONE',  ( 0.0000000000000000000, 0.0000000000000000000, 1.000000000000000000 ) ) ;
#94 = CARTESIAN_POINT ( 'NONE',  ( 0.0000000000000000000, 1.707404996040164500E-017, 0.0000000000000000000 ) ) ;
#95 = LINE ( 'NONE', #96, #156 ) ;
#96 = CARTESIAN_POINT ( 'NONE',  ( 0.0000000000000000000, 0.1250000000000000000, 0.1250000000000000000 ) ) ;
#97 = DIRECTION ( 'NONE',  ( 0.0000000000000000000, 0.6427876096865393600, 0.7660444431189780100 ) ) ;
#98 = LINE ( 'NONE', #99, #157 ) ;
#99 = CARTESIAN_POINT ( 'NONE',  ( 7.654042494670954500E-018, 0.1250000000000000000, -0.06249999999999996500 ) ) ;
#100 = DIRECTION ( 'NONE',  ( -0.0000000000000000000, 1.000000000000000000, -0.0000000000000000000 ) ) ;
#101 = DIRECTION ( 'NONE',  ( -0.0000000000000000000, 1.000000000000000000, -0.0000000000000000000 ) ) ;
#102 = DIRECTION ( 'NONE',  ( 0.0000000000000000000, 0.0000000000000000000, 1.000000000000000000 ) ) ;
#103 = LINE ( 'NONE', #104, #158 ) ;
#104 = CARTESIAN_POINT ( 'NONE',  ( 0.0000000000000000000, 0.1250000000000000000, 0.06249999999999996500 ) ) ;
#105 = DIRECTION ( 'NONE',  ( -0.0000000000000000000, 1.000000000000000000, -0.0000000000000000000 ) ) ;
#106 =( LENGTH_UNIT ( ) NAMED_UNIT ( * ) SI_UNIT ( $, .METRE. ) );
#107 =( CONVERSION_BASED_UNIT ( 'INCH', #155 ) LENGTH_UNIT ( ) NAMED_UNIT ( #48 ) );
#108 =( NAMED_UNIT ( * ) PLANE_ANGLE_UNIT ( ) SI_UNIT ( $, .RADIAN. ) );
#109 =( NAMED_UNIT ( * ) SI_UNIT ( $, .STERADIAN. ) SOLID_ANGLE_UNIT ( ) );
#110 = APPLICATION_CONTEXT ( 'automotive_design' ) ;
#111 = APPLICATION_CONTEXT ( 'automotive_design' ) ;
#112 = LENGTH_MEASURE_WITH_UNIT ( LENGTH_MEASURE( 0.02539999999999999900 ), #213 );
#113 = AXIS2_PLACEMENT_3D ( 'NONE', #217, #218, #219 ) ;
#114 = PRODUCT_DEFINITION_FORMATION_WITH_SPECIFIED_SOURCE ( 'ANY', '', #47, .NOT_KNOWN. ) ;
#115 = EDGE_CURVE ( 'NONE', #18, #21, #239, .T. ) ;
#116 = VECTOR ( 'NONE', #241, 39.37007874015748100 ) ;
#117 = AXIS2_PLACEMENT_3D ( 'NONE', #251, #252, #253 ) ;
#118 = AXIS2_PLACEMENT_3D ( 'NONE', #254, #187, #188 ) ;
#119 = AXIS2_PLACEMENT_3D ( 'NONE', #245, #246, #247 ) ;
#120 = AXIS2_PLACEMENT_3D ( 'NONE', #248, #249, #250 ) ;
#121 = MECHANICAL_DESIGN_GEOMETRIC_PRESENTATION_REPRESENTATION (  '', ( #272 ), #29 ) ;
#122 = CYLINDRICAL_SURFACE ( 'NONE', #118, 0.3125000000000000000 ) ;
#123 = LENGTH_MEASURE_WITH_UNIT ( LENGTH_MEASURE( 0.02539999999999999900 ), #183 );
#124 = MECHANICAL_DESIGN_GEOMETRIC_PRESENTATION_REPRESENTATION (  '', ( #159 ), #31 ) ;
#125 = FACE_OUTER_BOUND ( 'NONE', #2, .T. ) ;
#126 = COLOUR_RGB ( '',0.5686274509803921400, 0.5686274509803921400, 0.5882352941176470800 ) ;
#127 = EDGE_CURVE ( 'NONE', #20, #18, #43, .T. ) ;
#128 = EDGE_CURVE ( 'NONE', #22, #21, #40, .T. ) ;
#129 = EDGE_CURVE ( 'NONE', #16, #14, #39, .T. ) ;
#130 = EDGE_CURVE ( 'NONE', #18, #20, #44, .T. ) ;
#131 = CONICAL_SURFACE ( 'NONE', #151, 0.1250000000000000000, 0.8726646259971647700 ) ;
#132 = CIRCLE ( 'NONE', #147, 0.3125000000000000000 ) ;
#133 = CIRCLE ( 'NONE', #153, 0.3125000000000000000 ) ;
#134 = CIRCLE ( 'NONE', #152, 0.3125000000000000000 ) ;
#135 = CIRCLE ( 'NONE', #150, 0.06249999999999996500 ) ;
#136 = COLOUR_RGB ( '',0.5686274509803921400, 0.5686274509803921400, 0.5882352941176470800 ) ;
#137 = PRODUCT_DEFINITION ( 'UNKNOWN', '', #114, #162 ) ;
#138 = PRODUCT_RELATED_PRODUCT_CATEGORY ( 'part', '', ( #47 ) ) ;
#139 = FACE_BOUND ( 'NONE', #3, .T. ) ;
#140 = FACE_OUTER_BOUND ( 'NONE', #6, .T. ) ;
#141 = FACE_OUTER_BOUND ( 'NONE', #4, .T. ) ;
#142 = FACE_BOUND ( 'NONE', #5, .T. ) ;
#143 = FACE_OUTER_BOUND ( 'NONE', #8, .T. ) ;
#144 = AXIS2_PLACEMENT_3D ( 'NONE', #190, #191, #192 ) ;
#145 = AXIS2_PLACEMENT_3D ( 'NONE', #197, #198, #199 ) ;
#146 = FACE_OUTER_BOUND ( 'NONE', #7, .T. ) ;
#147 = AXIS2_PLACEMENT_3D ( 'NONE', #203, #204, #205 ) ;
#148 = AXIS2_PLACEMENT_3D ( 'NONE', #194, #195, #196 ) ;
#149 = CYLINDRICAL_SURFACE ( 'NONE', #145, 0.06249999999999996500 ) ;
#150 = AXIS2_PLACEMENT_3D ( 'NONE', #94, #101, #102 ) ;
#151 = AXIS2_PLACEMENT_3D ( 'NONE', #200, #201, #202 ) ;
#152 = AXIS2_PLACEMENT_3D ( 'NONE', #91, #92, #93 ) ;
#153 = AXIS2_PLACEMENT_3D ( 'NONE', #85, #89, #90 ) ;
#154 = VECTOR ( 'NONE', #88, 39.37007874015748100 ) ;
#155 = LENGTH_MEASURE_WITH_UNIT ( LENGTH_MEASURE( 0.02539999999999999900 ), #106 );
#156 = VECTOR ( 'NONE', #97, 39.37007874015748100 ) ;
#157 = VECTOR ( 'NONE', #100, 39.37007874015748100 ) ;
#158 = VECTOR ( 'NONE', #105, 39.37007874015748100 ) ;
#159 = STYLED_ITEM ( 'NONE', ( #212 ), #177 ) ;
#160 = PRESENTATION_LAYER_ASSIGNMENT (  '', '', ( #159 ) ) ;
#161 = MANIFOLD_SOLID_BREP ( 'CSK for #10 Flat Head Machine Screw1', #263 ) ;
#162 = PRODUCT_DEFINITION_CONTEXT ( 'detailed design', #110, 'design' ) ;
#163 = PRODUCT_DEFINITION_SHAPE ( 'NONE', 'NONE',  #137 ) ;
#164 = ADVANCED_FACE ( 'NONE', ( #125 ), #122, .T. ) ;
#165 = ADVANCED_FACE ( 'NONE', ( #139, #141 ), #189, .T. ) ;
#166 = ADVANCED_FACE ( 'NONE', ( #142, #140 ), #193, .F. ) ;
#167 = ADVANCED_FACE ( 'NONE', ( #146 ), #149, .F. ) ;
#168 = ADVANCED_FACE ( 'NONE', ( #143 ), #131, .F. ) ;
#169 = EDGE_CURVE ( 'NONE', #17, #23, #132, .T. ) ;
#170 = EDGE_CURVE ( 'NONE', #15, #23, #86, .T. ) ;
#171 = EDGE_CURVE ( 'NONE', #15, #19, #133, .T. ) ;
#172 = EDGE_CURVE ( 'NONE', #23, #17, #134, .T. ) ;
#173 = EDGE_CURVE ( 'NONE', #20, #22, #95, .T. ) ;
#174 = EDGE_CURVE ( 'NONE', #14, #18, #98, .T. ) ;
#175 = EDGE_CURVE ( 'NONE', #14, #16, #135, .T. ) ;
#176 = EDGE_CURVE ( 'NONE', #16, #20, #103, .T. ) ;
#177 = ADVANCED_BREP_SHAPE_REPRESENTATION ( 'DH125AE-FN-N42', ( #161, #113 ), #30 ) ;
#178 = UNCERTAINTY_MEASURE_WITH_UNIT (LENGTH_MEASURE( 1.000000000000000100E-005 ), #214, 'distance_accuracy_value', 'NONE');
#179 = UNCERTAINTY_MEASURE_WITH_UNIT (LENGTH_MEASURE( 1.000000000000000100E-005 ), #184, 'distance_accuracy_value', 'NONE');
#180 = UNCERTAINTY_MEASURE_WITH_UNIT (LENGTH_MEASURE( 1.000000000000000100E-005 ), #107, 'distance_accuracy_value', 'NONE');
#181 = SURFACE_STYLE_USAGE ( .BOTH. , #258 ) ;
#182 = PRESENTATION_STYLE_ASSIGNMENT (( #181 ) ) ;
#183 =( LENGTH_UNIT ( ) NAMED_UNIT ( * ) SI_UNIT ( $, .METRE. ) );
#184 =( CONVERSION_BASED_UNIT ( 'INCH', #123 ) LENGTH_UNIT ( ) NAMED_UNIT ( #45 ) );
#185 =( NAMED_UNIT ( * ) PLANE_ANGLE_UNIT ( ) SI_UNIT ( $, .RADIAN. ) );
#186 =( NAMED_UNIT ( * ) SI_UNIT ( $, .STERADIAN. ) SOLID_ANGLE_UNIT ( ) );
#187 = DIRECTION ( 'NONE',  ( -0.0000000000000000000, -1.000000000000000000, -0.0000000000000000000 ) ) ;
#188 = DIRECTION ( 'NONE',  ( 0.0000000000000000000, 0.0000000000000000000, -1.000000000000000000 ) ) ;
#189 = PLANE ( 'NONE',  #144 ) ;
#190 = CARTESIAN_POINT ( 'NONE',  ( 0.0000000000000000000, 0.1250000000000000000, 0.0000000000000000000 ) ) ;
#191 = DIRECTION ( 'NONE',  ( 0.0000000000000000000, 1.000000000000000000, 0.0000000000000000000 ) ) ;
#192 = DIRECTION ( 'NONE',  ( 0.0000000000000000000, -0.0000000000000000000, 1.000000000000000000 ) ) ;
#193 = PLANE ( 'NONE',  #148 ) ;
#194 = CARTESIAN_POINT ( 'NONE',  ( 0.0000000000000000000, 0.0000000000000000000, 0.0000000000000000000 ) ) ;
#195 = DIRECTION ( 'NONE',  ( 0.0000000000000000000, 1.000000000000000000, 0.0000000000000000000 ) ) ;
#196 = DIRECTION ( 'NONE',  ( 0.0000000000000000000, -0.0000000000000000000, 1.000000000000000000 ) ) ;
#197 = CARTESIAN_POINT ( 'NONE',  ( 0.0000000000000000000, 0.1250000000000000000, 0.0000000000000000000 ) ) ;
#198 = DIRECTION ( 'NONE',  ( -0.0000000000000000000, 1.000000000000000000, -0.0000000000000000000 ) ) ;
#199 = DIRECTION ( 'NONE',  ( 0.0000000000000000000, 0.0000000000000000000, 1.000000000000000000 ) ) ;
#200 = CARTESIAN_POINT ( 'NONE',  ( 0.0000000000000000000, 0.1250000000000000000, 0.0000000000000000000 ) ) ;
#201 = DIRECTION ( 'NONE',  ( -0.0000000000000000000, 1.000000000000000000, -0.0000000000000000000 ) ) ;
#202 = DIRECTION ( 'NONE',  ( 0.0000000000000000000, 0.0000000000000000000, 1.000000000000000000 ) ) ;
#203 = CARTESIAN_POINT ( 'NONE',  ( 0.0000000000000000000, 0.0000000000000000000, 0.0000000000000000000 ) ) ;
#204 = DIRECTION ( 'NONE',  ( 0.0000000000000000000, 1.000000000000000000, 0.0000000000000000000 ) ) ;
#205 = DIRECTION ( 'NONE',  ( 0.0000000000000000000, 0.0000000000000000000, 1.000000000000000000 ) ) ;
#206 = SHAPE_DEFINITION_REPRESENTATION ( #163, #177 ) ;
#207 = FILL_AREA_STYLE_COLOUR ( '', #136 ) ;
#208 = FILL_AREA_STYLE ('',( #207 ) ) ;
#209 = SURFACE_STYLE_FILL_AREA ( #208 ) ;
#210 = SURFACE_SIDE_STYLE ('',( #209 ) ) ;
#211 = SURFACE_STYLE_USAGE ( .BOTH. , #210 ) ;
#212 = PRESENTATION_STYLE_ASSIGNMENT (( #211 ) ) ;
#213 =( LENGTH_UNIT ( ) NAMED_UNIT ( * ) SI_UNIT ( $, .METRE. ) );
#214 =( CONVERSION_BASED_UNIT ( 'INCH', #112 ) LENGTH_UNIT ( ) NAMED_UNIT ( #46 ) );
#215 =( NAMED_UNIT ( * ) PLANE_ANGLE_UNIT ( ) SI_UNIT ( $, .RADIAN. ) );
#216 =( NAMED_UNIT ( * ) SI_UNIT ( $, .STERADIAN. ) SOLID_ANGLE_UNIT ( ) );
#217 = CARTESIAN_POINT ( 'NONE',  ( 0.0000000000000000000, 0.0000000000000000000, 0.0000000000000000000 ) ) ;
#218 = DIRECTION ( 'NONE',  ( 0.0000000000000000000, 0.0000000000000000000, 1.000000000000000000 ) ) ;
#219 = DIRECTION ( 'NONE',  ( 1.000000000000000000, 0.0000000000000000000, 0.0000000000000000000 ) ) ;
#220 = APPLICATION_PROTOCOL_DEFINITION ( 'draft international standard', 'automotive_design', 1998, #111 ) ;
#221 = PRODUCT_CONTEXT ( 'NONE', #111, 'mechanical' ) ;
#222 = APPLICATION_PROTOCOL_DEFINITION ( 'draft international standard', 'automotive_design', 1998, #110 ) ;
#223 = DIRECTION ( 'NONE',  ( -0.0000000000000000000, -1.000000000000000000, -0.0000000000000000000 ) ) ;
#224 = CARTESIAN_POINT ( 'NONE',  ( 0.0000000000000000000, 0.1250000000000000000, 0.0000000000000000000 ) ) ;
#225 = DIRECTION ( 'NONE',  ( 0.0000000000000000000, 1.000000000000000000, 0.0000000000000000000 ) ) ;
#226 = DIRECTION ( 'NONE',  ( 0.0000000000000000000, 0.0000000000000000000, 1.000000000000000000 ) ) ;
#227 = CARTESIAN_POINT ( 'NONE',  ( 0.0000000000000000000, 0.1250000000000000000, 0.0000000000000000000 ) ) ;
#228 = DIRECTION ( 'NONE',  ( -0.0000000000000000000, 1.000000000000000000, -0.0000000000000000000 ) ) ;
#229 = DIRECTION ( 'NONE',  ( 0.0000000000000000000, 0.0000000000000000000, 1.000000000000000000 ) ) ;
#230 = CARTESIAN_POINT ( 'NONE',  ( 0.0000000000000000000, 0.1250000000000000000, 0.0000000000000000000 ) ) ;
#231 = DIRECTION ( 'NONE',  ( -0.0000000000000000000, -1.000000000000000000, -0.0000000000000000000 ) ) ;
#232 = DIRECTION ( 'NONE',  ( 0.0000000000000000000, 0.0000000000000000000, -1.000000000000000000 ) ) ;
#233 = CARTESIAN_POINT ( 'NONE',  ( 0.0000000000000000000, 0.1250000000000000000, 0.0000000000000000000 ) ) ;
#234 = DIRECTION ( 'NONE',  ( -0.0000000000000000000, 1.000000000000000000, -0.0000000000000000000 ) ) ;
#235 = DIRECTION ( 'NONE',  ( 0.0000000000000000000, 0.0000000000000000000, 1.000000000000000000 ) ) ;
#236 = CARTESIAN_POINT ( 'NONE',  ( 0.0000000000000000000, 0.1250000000000000000, 0.0000000000000000000 ) ) ;
#237 = DIRECTION ( 'NONE',  ( -0.0000000000000000000, 1.000000000000000000, -0.0000000000000000000 ) ) ;
#238 = DIRECTION ( 'NONE',  ( 0.0000000000000000000, 0.0000000000000000000, 1.000000000000000000 ) ) ;
#239 = LINE ( 'NONE', #240, #116 ) ;
#240 = CARTESIAN_POINT ( 'NONE',  ( 1.530808498934191500E-017, 0.1250000000000000000, -0.1250000000000000000 ) ) ;
#241 = DIRECTION ( 'NONE',  ( 9.381338752702732000E-017, 0.6427876096865393600, -0.7660444431189780100 ) ) ;
#242 = CARTESIAN_POINT ( 'NONE',  ( 0.0000000000000000000, 0.07255627305141997000, 0.0000000000000000000 ) ) ;
#243 = DIRECTION ( 'NONE',  ( -0.0000000000000000000, 1.000000000000000000, -0.0000000000000000000 ) ) ;
#244 = DIRECTION ( 'NONE',  ( 0.0000000000000000000, 0.0000000000000000000, 1.000000000000000000 ) ) ;
#245 = CARTESIAN_POINT ( 'NONE',  ( 0.0000000000000000000, 0.1250000000000000000, 0.0000000000000000000 ) ) ;
#246 = DIRECTION ( 'NONE',  ( -0.0000000000000000000, 1.000000000000000000, -0.0000000000000000000 ) ) ;
#247 = DIRECTION ( 'NONE',  ( 0.0000000000000000000, 0.0000000000000000000, 1.000000000000000000 ) ) ;
#248 = CARTESIAN_POINT ( 'NONE',  ( 0.0000000000000000000, 1.707404996040164500E-017, 0.0000000000000000000 ) ) ;
#249 = DIRECTION ( 'NONE',  ( -0.0000000000000000000, 1.000000000000000000, -0.0000000000000000000 ) ) ;
#250 = DIRECTION ( 'NONE',  ( 0.0000000000000000000, 0.0000000000000000000, 1.000000000000000000 ) ) ;
#251 = CARTESIAN_POINT ( 'NONE',  ( 0.0000000000000000000, 0.07255627305141997000, 0.0000000000000000000 ) ) ;
#252 = DIRECTION ( 'NONE',  ( -0.0000000000000000000, 1.000000000000000000, -0.0000000000000000000 ) ) ;
#253 = DIRECTION ( 'NONE',  ( 0.0000000000000000000, 0.0000000000000000000, 1.000000000000000000 ) ) ;
#254 = CARTESIAN_POINT ( 'NONE',  ( 0.0000000000000000000, 0.1250000000000000000, 0.0000000000000000000 ) ) ;
#255 = FILL_AREA_STYLE_COLOUR ( '', #126 ) ;
#256 = FILL_AREA_STYLE ('',( #255 ) ) ;
#257 = SURFACE_STYLE_FILL_AREA ( #256 ) ;
#258 = SURFACE_SIDE_STYLE ('',( #257 ) ) ;
#259 = AXIS2_PLACEMENT_3D ( 'NONE', #227, #228, #229 ) ;
#260 = VECTOR ( 'NONE', #223, 39.37007874015748100 ) ;
#261 = AXIS2_PLACEMENT_3D ( 'NONE', #233, #234, #235 ) ;
#262 = FACE_OUTER_BOUND ( 'NONE', #1, .T. ) ;
#263 = CLOSED_SHELL ( 'NONE', ( #34, #36, #35, #164, #165, #166, #167, #168 ) ) ;
#264 = PRESENTATION_LAYER_ASSIGNMENT (  '', '', ( #272 ) ) ;
#265 = CYLINDRICAL_SURFACE ( 'NONE', #261, 0.06249999999999996500 ) ;
#266 = AXIS2_PLACEMENT_3D ( 'NONE', #224, #225, #226 ) ;
#267 = FACE_OUTER_BOUND ( 'NONE', #71, .T. ) ;
#268 = AXIS2_PLACEMENT_3D ( 'NONE', #236, #237, #238 ) ;
#269 = AXIS2_PLACEMENT_3D ( 'NONE', #242, #243, #244 ) ;
#270 = FACE_OUTER_BOUND ( 'NONE', #13, .T. ) ;
#271 = CYLINDRICAL_SURFACE ( 'NONE', #273, 0.3125000000000000000 ) ;
#272 = STYLED_ITEM ( 'NONE', ( #182 ), #161 ) ;
#273 = AXIS2_PLACEMENT_3D ( 'NONE', #230, #231, #232 ) ;
ENDSEC;
END-ISO-10303-21;
