ISO-10303-21;
HEADER;
FILE_DESCRIPTION (( 'STEP AP214' ),
    '1' );
FILE_NAME ('DH125B-063-AU.step',
    '2012-04-20T20:56:52',
    ( '' ),
    ( '' ),
    'SwSTEP 2.0',
    'SolidWorks 2012',
    '' );
FILE_SCHEMA (( 'AUTOMOTIVE_DESIGN' ));
ENDSEC;

DATA;
#1 = VECTOR ( 'NONE', #144, 39.37007874015748100 ) ;
#2 = FACE_BOUND ( 'NONE', #65, .T. ) ;
#3 = AXIS2_PLACEMENT_3D ( 'NONE', #166, #167, #168 ) ;
#4 = FACE_OUTER_BOUND ( 'NONE', #68, .T. ) ;
#5 = AXIS2_PLACEMENT_3D ( 'NONE', #163, #164, #165 ) ;
#6 = CYLINDRICAL_SURFACE ( 'NONE', #8, 0.1250000000000000600 ) ;
#7 = FACE_OUTER_BOUND ( 'NONE', #62, .T. ) ;
#8 = AXIS2_PLACEMENT_3D ( 'NONE', #159, #160, #161 ) ;
#9 = FACE_OUTER_BOUND ( 'NONE', #66, .T. ) ;
#10 = CYLINDRICAL_SURFACE ( 'NONE', #3, 0.1250000000000000600 ) ;
#11 = AXIS2_PLACEMENT_3D ( 'NONE', #59, #41, #45 ) ;
#12 = CYLINDRICAL_SURFACE ( 'NONE', #11, 0.03125000000000001400 ) ;
#13 = AXIS2_PLACEMENT_3D ( 'NONE', #153, #154, #155 ) ;
#14 = FACE_OUTER_BOUND ( 'NONE', #69, .T. ) ;
#15 = VECTOR ( 'NONE', #135, 39.37007874015748100 ) ;
#16 = AXIS2_PLACEMENT_3D ( 'NONE', #129, #136, #137 ) ;
#17 = AXIS2_PLACEMENT_3D ( 'NONE', #138, #139, #140 ) ;
#18 = AXIS2_PLACEMENT_3D ( 'NONE', #150, #151, #152 ) ;
#19 = AXIS2_PLACEMENT_3D ( 'NONE', #141, #145, #146 ) ;
#20 = VECTOR ( 'NONE', #132, 39.37007874015748100 ) ;
#21 = AXIS2_PLACEMENT_3D ( 'NONE', #156, #157, #158 ) ;
#22 = FACE_OUTER_BOUND ( 'NONE', #63, .T. ) ;
#23 = FACE_OUTER_BOUND ( 'NONE', #64, .T. ) ;
#24 = CYLINDRICAL_SURFACE ( 'NONE', #21, 0.03125000000000001400 ) ;
#25 = PRODUCT_DEFINITION_FORMATION_WITH_SPECIFIED_SOURCE ( 'ANY', '', #172, .NOT_KNOWN. ) ;
#26 = AXIS2_PLACEMENT_3D ( 'NONE', #39, #38, #37 ) ;
#27 = LENGTH_MEASURE_WITH_UNIT ( LENGTH_MEASURE( 0.02539999999999999900 ), #56 );
#28 = MECHANICAL_DESIGN_GEOMETRIC_PRESENTATION_REPRESENTATION (  '', ( #30 ), #213 ) ;
#29 = PRESENTATION_LAYER_ASSIGNMENT (  '', '', ( #30 ) ) ;
#30 = STYLED_ITEM ( 'NONE', ( #50 ), #179 ) ;
#31 = AXIS2_PLACEMENT_3D ( 'NONE', #42, #47, #43 ) ;
#32 = LENGTH_MEASURE_WITH_UNIT ( LENGTH_MEASURE( 0.02539999999999999900 ), #46 );
#33 = FACE_BOUND ( 'NONE', #67, .T. ) ;
#34 = APPLICATION_PROTOCOL_DEFINITION ( 'draft international standard', 'automotive_design', 1998, #182 ) ;
#35 = PRODUCT_CONTEXT ( 'NONE', #181, 'mechanical' ) ;
#36 = APPLICATION_PROTOCOL_DEFINITION ( 'draft international standard', 'automotive_design', 1998, #181 ) ;
#37 = DIRECTION ( 'NONE',  ( 1.000000000000000000, 0.0000000000000000000, 0.0000000000000000000 ) ) ;
#38 = DIRECTION ( 'NONE',  ( 0.0000000000000000000, 0.0000000000000000000, 1.000000000000000000 ) ) ;
#39 = CARTESIAN_POINT ( 'NONE',  ( 0.0000000000000000000, 0.0000000000000000000, 0.0000000000000000000 ) ) ;
#40 =( NAMED_UNIT ( * ) SI_UNIT ( $, .STERADIAN. ) SOLID_ANGLE_UNIT ( ) );
#41 = DIRECTION ( 'NONE',  ( -0.0000000000000000000, -0.0000000000000000000, -1.000000000000000000 ) ) ;
#42 = CARTESIAN_POINT ( 'NONE',  ( 0.0000000000000000000, 0.0000000000000000000, 0.0000000000000000000 ) ) ;
#43 = DIRECTION ( 'NONE',  ( 1.000000000000000000, 0.0000000000000000000, -0.0000000000000000000 ) ) ;
#44 = PLANE ( 'NONE',  #31 ) ;
#45 = DIRECTION ( 'NONE',  ( -1.000000000000000000, 0.0000000000000000000, 0.0000000000000000000 ) ) ;
#46 =( LENGTH_UNIT ( ) NAMED_UNIT ( * ) SI_UNIT ( $, .METRE. ) );
#47 = DIRECTION ( 'NONE',  ( 0.0000000000000000000, 0.0000000000000000000, 1.000000000000000000 ) ) ;
#48 =( CONVERSION_BASED_UNIT ( 'INCH', #27 ) LENGTH_UNIT ( ) NAMED_UNIT ( #171 ) );
#49 = SURFACE_STYLE_USAGE ( .BOTH. , #54 ) ;
#50 = PRESENTATION_STYLE_ASSIGNMENT (( #49 ) ) ;
#51 =( CONVERSION_BASED_UNIT ( 'INCH', #32 ) LENGTH_UNIT ( ) NAMED_UNIT ( #169 ) );
#52 =( NAMED_UNIT ( * ) PLANE_ANGLE_UNIT ( ) SI_UNIT ( $, .RADIAN. ) );
#53 =( NAMED_UNIT ( * ) SI_UNIT ( $, .STERADIAN. ) SOLID_ANGLE_UNIT ( ) );
#54 = SURFACE_SIDE_STYLE ('',( #57 ) ) ;
#55 = SHAPE_DEFINITION_REPRESENTATION ( #173, #179 ) ;
#56 =( LENGTH_UNIT ( ) NAMED_UNIT ( * ) SI_UNIT ( $, .METRE. ) );
#57 = SURFACE_STYLE_FILL_AREA ( #60 ) ;
#58 =( NAMED_UNIT ( * ) PLANE_ANGLE_UNIT ( ) SI_UNIT ( $, .RADIAN. ) );
#59 = CARTESIAN_POINT ( 'NONE',  ( 0.0000000000000000000, 0.0000000000000000000, 0.1250000000000000000 ) ) ;
#60 = FILL_AREA_STYLE ('',( #61 ) ) ;
#61 = FILL_AREA_STYLE_COLOUR ( '', #210 ) ;
#62 = EDGE_LOOP ( 'NONE', ( #78, #81 ) ) ;
#63 = EDGE_LOOP ( 'NONE', ( #70, #72, #71, #73 ) ) ;
#64 = EDGE_LOOP ( 'NONE', ( #74, #76, #75, #77 ) ) ;
#65 = EDGE_LOOP ( 'NONE', ( #79, #82 ) ) ;
#66 = EDGE_LOOP ( 'NONE', ( #80, #85 ) ) ;
#67 = EDGE_LOOP ( 'NONE', ( #83, #86 ) ) ;
#68 = EDGE_LOOP ( 'NONE', ( #84, #88, #89, #87 ) ) ;
#69 = EDGE_LOOP ( 'NONE', ( #91, #92, #93, #90 ) ) ;
#70 = ORIENTED_EDGE ( 'NONE', *, *, #184, .T. ) ;
#71 = ORIENTED_EDGE ( 'NONE', *, *, #185, .F. ) ;
#72 = ORIENTED_EDGE ( 'NONE', *, *, #183, .T. ) ;
#73 = ORIENTED_EDGE ( 'NONE', *, *, #186, .F. ) ;
#74 = ORIENTED_EDGE ( 'NONE', *, *, #188, .F. ) ;
#75 = ORIENTED_EDGE ( 'NONE', *, *, #189, .T. ) ;
#76 = ORIENTED_EDGE ( 'NONE', *, *, #187, .T. ) ;
#77 = ORIENTED_EDGE ( 'NONE', *, *, #190, .F. ) ;
#78 = ORIENTED_EDGE ( 'NONE', *, *, #191, .T. ) ;
#79 = ORIENTED_EDGE ( 'NONE', *, *, #184, .F. ) ;
#80 = ORIENTED_EDGE ( 'NONE', *, *, #192, .F. ) ;
#81 = ORIENTED_EDGE ( 'NONE', *, *, #188, .T. ) ;
#82 = ORIENTED_EDGE ( 'NONE', *, *, #194, .F. ) ;
#83 = ORIENTED_EDGE ( 'NONE', *, *, #185, .T. ) ;
#84 = ORIENTED_EDGE ( 'NONE', *, *, #187, .F. ) ;
#85 = ORIENTED_EDGE ( 'NONE', *, *, #189, .F. ) ;
#86 = ORIENTED_EDGE ( 'NONE', *, *, #193, .T. ) ;
#87 = ORIENTED_EDGE ( 'NONE', *, *, #192, .T. ) ;
#88 = ORIENTED_EDGE ( 'NONE', *, *, #191, .F. ) ;
#89 = ORIENTED_EDGE ( 'NONE', *, *, #190, .T. ) ;
#90 = ORIENTED_EDGE ( 'NONE', *, *, #193, .F. ) ;
#91 = ORIENTED_EDGE ( 'NONE', *, *, #183, .F. ) ;
#92 = ORIENTED_EDGE ( 'NONE', *, *, #194, .T. ) ;
#93 = ORIENTED_EDGE ( 'NONE', *, *, #186, .T. ) ;
#94 = VERTEX_POINT ( 'NONE', #102 ) ;
#95 = VERTEX_POINT ( 'NONE', #103 ) ;
#96 = VERTEX_POINT ( 'NONE', #104 ) ;
#97 = VERTEX_POINT ( 'NONE', #105 ) ;
#98 = VERTEX_POINT ( 'NONE', #106 ) ;
#99 = VERTEX_POINT ( 'NONE', #107 ) ;
#100 = VERTEX_POINT ( 'NONE', #108 ) ;
#101 = VERTEX_POINT ( 'NONE', #109 ) ;
#102 = CARTESIAN_POINT ( 'NONE',  ( -0.03125000000000001400, 0.0000000000000000000, 0.1250000000000000000 ) ) ;
#103 = CARTESIAN_POINT ( 'NONE',  ( 0.03125000000000001400, 3.827021247335480300E-018, 0.1250000000000000000 ) ) ;
#104 = CARTESIAN_POINT ( 'NONE',  ( 0.1250000000000000600, 1.530808498934192100E-017, 0.1250000000000000000 ) ) ;
#105 = CARTESIAN_POINT ( 'NONE',  ( -0.1250000000000000600, 0.0000000000000000000, 0.1250000000000000000 ) ) ;
#106 = CARTESIAN_POINT ( 'NONE',  ( 0.1250000000000000600, 1.530808498934192100E-017, 0.0000000000000000000 ) ) ;
#107 = CARTESIAN_POINT ( 'NONE',  ( -0.03125000000000001400, 0.0000000000000000000, 0.0000000000000000000 ) ) ;
#108 = CARTESIAN_POINT ( 'NONE',  ( 0.03125000000000001400, 3.827021247335480300E-018, 0.0000000000000000000 ) ) ;
#109 = CARTESIAN_POINT ( 'NONE',  ( -0.1250000000000000600, 0.0000000000000000000, 0.0000000000000000000 ) ) ;
#110 = FILL_AREA_STYLE_COLOUR ( '', #202 ) ;
#111 = FILL_AREA_STYLE ('',( #110 ) ) ;
#112 = SURFACE_STYLE_FILL_AREA ( #111 ) ;
#113 = SURFACE_SIDE_STYLE ('',( #112 ) ) ;
#114 = SURFACE_STYLE_USAGE ( .BOTH. , #113 ) ;
#115 = PRESENTATION_STYLE_ASSIGNMENT (( #114 ) ) ;
#116 =( LENGTH_UNIT ( ) NAMED_UNIT ( * ) SI_UNIT ( $, .METRE. ) );
#117 =( CONVERSION_BASED_UNIT ( 'INCH', #222 ) LENGTH_UNIT ( ) NAMED_UNIT ( #170 ) );
#118 =( NAMED_UNIT ( * ) PLANE_ANGLE_UNIT ( ) SI_UNIT ( $, .RADIAN. ) );
#119 =( NAMED_UNIT ( * ) SI_UNIT ( $, .STERADIAN. ) SOLID_ANGLE_UNIT ( ) );
#120 = LINE ( 'NONE', #121, #217 ) ;
#121 = CARTESIAN_POINT ( 'NONE',  ( 0.03125000000000001400, 3.827021247335480300E-018, 0.1250000000000000000 ) ) ;
#122 = DIRECTION ( 'NONE',  ( -0.0000000000000000000, -0.0000000000000000000, -1.000000000000000000 ) ) ;
#123 = CARTESIAN_POINT ( 'NONE',  ( 0.0000000000000000000, 0.0000000000000000000, 0.1250000000000000000 ) ) ;
#124 = DIRECTION ( 'NONE',  ( 0.0000000000000000000, 0.0000000000000000000, 1.000000000000000000 ) ) ;
#125 = DIRECTION ( 'NONE',  ( 1.000000000000000000, 0.0000000000000000000, 0.0000000000000000000 ) ) ;
#126 = CARTESIAN_POINT ( 'NONE',  ( 0.0000000000000000000, 0.0000000000000000000, 0.0000000000000000000 ) ) ;
#127 = DIRECTION ( 'NONE',  ( 0.0000000000000000000, 0.0000000000000000000, 1.000000000000000000 ) ) ;
#128 = DIRECTION ( 'NONE',  ( 1.000000000000000000, 0.0000000000000000000, 0.0000000000000000000 ) ) ;
#129 = CARTESIAN_POINT ( 'NONE',  ( 0.0000000000000000000, 0.0000000000000000000, 0.1250000000000000000 ) ) ;
#130 = LINE ( 'NONE', #131, #20 ) ;
#131 = CARTESIAN_POINT ( 'NONE',  ( -0.03125000000000001400, 0.0000000000000000000, 0.1250000000000000000 ) ) ;
#132 = DIRECTION ( 'NONE',  ( -0.0000000000000000000, -0.0000000000000000000, -1.000000000000000000 ) ) ;
#133 = LINE ( 'NONE', #134, #15 ) ;
#134 = CARTESIAN_POINT ( 'NONE',  ( 0.1250000000000000600, 1.530808498934192100E-017, 0.1250000000000000000 ) ) ;
#135 = DIRECTION ( 'NONE',  ( -0.0000000000000000000, -0.0000000000000000000, -1.000000000000000000 ) ) ;
#136 = DIRECTION ( 'NONE',  ( 0.0000000000000000000, 0.0000000000000000000, 1.000000000000000000 ) ) ;
#137 = DIRECTION ( 'NONE',  ( 1.000000000000000000, 0.0000000000000000000, 0.0000000000000000000 ) ) ;
#138 = CARTESIAN_POINT ( 'NONE',  ( 0.0000000000000000000, 0.0000000000000000000, 0.0000000000000000000 ) ) ;
#139 = DIRECTION ( 'NONE',  ( 0.0000000000000000000, 0.0000000000000000000, 1.000000000000000000 ) ) ;
#140 = DIRECTION ( 'NONE',  ( 1.000000000000000000, 0.0000000000000000000, 0.0000000000000000000 ) ) ;
#141 = CARTESIAN_POINT ( 'NONE',  ( 0.0000000000000000000, 0.0000000000000000000, 0.1250000000000000000 ) ) ;
#142 = LINE ( 'NONE', #143, #1 ) ;
#143 = CARTESIAN_POINT ( 'NONE',  ( -0.1250000000000000600, 0.0000000000000000000, 0.1250000000000000000 ) ) ;
#144 = DIRECTION ( 'NONE',  ( -0.0000000000000000000, -0.0000000000000000000, -1.000000000000000000 ) ) ;
#145 = DIRECTION ( 'NONE',  ( 0.0000000000000000000, 0.0000000000000000000, 1.000000000000000000 ) ) ;
#146 = DIRECTION ( 'NONE',  ( 1.000000000000000000, 0.0000000000000000000, 0.0000000000000000000 ) ) ;
#147 = CARTESIAN_POINT ( 'NONE',  ( 0.0000000000000000000, 0.0000000000000000000, 0.0000000000000000000 ) ) ;
#148 = DIRECTION ( 'NONE',  ( 0.0000000000000000000, 0.0000000000000000000, 1.000000000000000000 ) ) ;
#149 = DIRECTION ( 'NONE',  ( 1.000000000000000000, 0.0000000000000000000, 0.0000000000000000000 ) ) ;
#150 = CARTESIAN_POINT ( 'NONE',  ( 0.0000000000000000000, 0.0000000000000000000, 0.0000000000000000000 ) ) ;
#151 = DIRECTION ( 'NONE',  ( 0.0000000000000000000, 0.0000000000000000000, 1.000000000000000000 ) ) ;
#152 = DIRECTION ( 'NONE',  ( 1.000000000000000000, 0.0000000000000000000, 0.0000000000000000000 ) ) ;
#153 = CARTESIAN_POINT ( 'NONE',  ( 0.0000000000000000000, 0.0000000000000000000, 0.1250000000000000000 ) ) ;
#154 = DIRECTION ( 'NONE',  ( 0.0000000000000000000, 0.0000000000000000000, 1.000000000000000000 ) ) ;
#155 = DIRECTION ( 'NONE',  ( 1.000000000000000000, 0.0000000000000000000, 0.0000000000000000000 ) ) ;
#156 = CARTESIAN_POINT ( 'NONE',  ( 0.0000000000000000000, 0.0000000000000000000, 0.1250000000000000000 ) ) ;
#157 = DIRECTION ( 'NONE',  ( -0.0000000000000000000, -0.0000000000000000000, -1.000000000000000000 ) ) ;
#158 = DIRECTION ( 'NONE',  ( -1.000000000000000000, 0.0000000000000000000, 0.0000000000000000000 ) ) ;
#159 = CARTESIAN_POINT ( 'NONE',  ( 0.0000000000000000000, 0.0000000000000000000, 0.1250000000000000000 ) ) ;
#160 = DIRECTION ( 'NONE',  ( -0.0000000000000000000, -0.0000000000000000000, -1.000000000000000000 ) ) ;
#161 = DIRECTION ( 'NONE',  ( -1.000000000000000000, 0.0000000000000000000, 0.0000000000000000000 ) ) ;
#162 = PLANE ( 'NONE',  #5 ) ;
#163 = CARTESIAN_POINT ( 'NONE',  ( 0.0000000000000000000, 0.0000000000000000000, 0.1250000000000000000 ) ) ;
#164 = DIRECTION ( 'NONE',  ( 0.0000000000000000000, 0.0000000000000000000, 1.000000000000000000 ) ) ;
#165 = DIRECTION ( 'NONE',  ( 1.000000000000000000, 0.0000000000000000000, -0.0000000000000000000 ) ) ;
#166 = CARTESIAN_POINT ( 'NONE',  ( 0.0000000000000000000, 0.0000000000000000000, 0.1250000000000000000 ) ) ;
#167 = DIRECTION ( 'NONE',  ( -0.0000000000000000000, -0.0000000000000000000, -1.000000000000000000 ) ) ;
#168 = DIRECTION ( 'NONE',  ( -1.000000000000000000, 0.0000000000000000000, 0.0000000000000000000 ) ) ;
#169 = DIMENSIONAL_EXPONENTS ( 1.000000000000000000, 0.0000000000000000000, 0.0000000000000000000, 0.0000000000000000000, 0.0000000000000000000, 0.0000000000000000000, 0.0000000000000000000 ) ;
#170 = DIMENSIONAL_EXPONENTS ( 1.000000000000000000, 0.0000000000000000000, 0.0000000000000000000, 0.0000000000000000000, 0.0000000000000000000, 0.0000000000000000000, 0.0000000000000000000 ) ;
#171 = DIMENSIONAL_EXPONENTS ( 1.000000000000000000, 0.0000000000000000000, 0.0000000000000000000, 0.0000000000000000000, 0.0000000000000000000, 0.0000000000000000000, 0.0000000000000000000 ) ;
#172 = PRODUCT ( 'DH125B-063-AU', 'DH125B-063-AU', '', ( #35 ) ) ;
#173 = PRODUCT_DEFINITION_SHAPE ( 'NONE', 'NONE',  #180 ) ;
#174 = PRODUCT_DEFINITION_CONTEXT ( 'detailed design', #182, 'design' ) ;
#175 = MANIFOLD_SOLID_BREP ( 'Boss-Extrude1', #218 ) ;
#176 = UNCERTAINTY_MEASURE_WITH_UNIT (LENGTH_MEASURE( 1.000000000000000100E-005 ), #48, 'distance_accuracy_value', 'NONE');
#177 = UNCERTAINTY_MEASURE_WITH_UNIT (LENGTH_MEASURE( 1.000000000000000100E-005 ), #117, 'distance_accuracy_value', 'NONE');
#178 = UNCERTAINTY_MEASURE_WITH_UNIT (LENGTH_MEASURE( 1.000000000000000100E-005 ), #51, 'distance_accuracy_value', 'NONE');
#179 = ADVANCED_BREP_SHAPE_REPRESENTATION ( 'DH125B-063-AU', ( #175, #26 ), #214 ) ;
#180 = PRODUCT_DEFINITION ( 'UNKNOWN', '', #25, #174 ) ;
#181 = APPLICATION_CONTEXT ( 'automotive_design' ) ;
#182 = APPLICATION_CONTEXT ( 'automotive_design' ) ;
#183 = EDGE_CURVE ( 'NONE', #95, #100, #120, .T. ) ;
#184 = EDGE_CURVE ( 'NONE', #94, #95, #203, .T. ) ;
#185 = EDGE_CURVE ( 'NONE', #99, #100, #201, .T. ) ;
#186 = EDGE_CURVE ( 'NONE', #94, #99, #130, .T. ) ;
#187 = EDGE_CURVE ( 'NONE', #96, #98, #133, .T. ) ;
#188 = EDGE_CURVE ( 'NONE', #96, #97, #204, .T. ) ;
#189 = EDGE_CURVE ( 'NONE', #98, #101, #205, .T. ) ;
#190 = EDGE_CURVE ( 'NONE', #97, #101, #142, .T. ) ;
#191 = EDGE_CURVE ( 'NONE', #97, #96, #206, .T. ) ;
#192 = EDGE_CURVE ( 'NONE', #101, #98, #207, .T. ) ;
#193 = EDGE_CURVE ( 'NONE', #100, #99, #208, .T. ) ;
#194 = EDGE_CURVE ( 'NONE', #95, #94, #209, .T. ) ;
#195 = ADVANCED_FACE ( 'NONE', ( #22 ), #24, .F. ) ;
#196 = ADVANCED_FACE ( 'NONE', ( #23 ), #6, .T. ) ;
#197 = ADVANCED_FACE ( 'NONE', ( #7, #2 ), #162, .T. ) ;
#198 = ADVANCED_FACE ( 'NONE', ( #4 ), #10, .T. ) ;
#199 = ADVANCED_FACE ( 'NONE', ( #14 ), #12, .F. ) ;
#200 = ADVANCED_FACE ( 'NONE', ( #9, #33 ), #44, .F. ) ;
#201 = CIRCLE ( 'NONE', #215, 0.03125000000000001400 ) ;
#202 = COLOUR_RGB ( '',0.9686274509803921600, 0.8784313725490196000, 0.5999999999999999800 ) ;
#203 = CIRCLE ( 'NONE', #223, 0.03125000000000001400 ) ;
#204 = CIRCLE ( 'NONE', #16, 0.1250000000000000600 ) ;
#205 = CIRCLE ( 'NONE', #17, 0.1250000000000000600 ) ;
#206 = CIRCLE ( 'NONE', #19, 0.1250000000000000600 ) ;
#207 = CIRCLE ( 'NONE', #216, 0.1250000000000000600 ) ;
#208 = CIRCLE ( 'NONE', #18, 0.03125000000000001400 ) ;
#209 = CIRCLE ( 'NONE', #13, 0.03125000000000001400 ) ;
#210 = COLOUR_RGB ( '',0.9686274509803921600, 0.8784313725490196000, 0.5999999999999999800 ) ;
#211 = PRODUCT_RELATED_PRODUCT_CATEGORY ( 'part', '', ( #172 ) ) ;
#212 =( GEOMETRIC_REPRESENTATION_CONTEXT ( 3 ) GLOBAL_UNCERTAINTY_ASSIGNED_CONTEXT ( ( #177 ) ) GLOBAL_UNIT_ASSIGNED_CONTEXT ( ( #117, #118, #119 ) ) REPRESENTATION_CONTEXT ( 'NONE', 'WORKASPACE' ) );
#213 =( GEOMETRIC_REPRESENTATION_CONTEXT ( 3 ) GLOBAL_UNCERTAINTY_ASSIGNED_CONTEXT ( ( #176 ) ) GLOBAL_UNIT_ASSIGNED_CONTEXT ( ( #48, #58, #40 ) ) REPRESENTATION_CONTEXT ( 'NONE', 'WORKASPACE' ) );
#214 =( GEOMETRIC_REPRESENTATION_CONTEXT ( 3 ) GLOBAL_UNCERTAINTY_ASSIGNED_CONTEXT ( ( #178 ) ) GLOBAL_UNIT_ASSIGNED_CONTEXT ( ( #51, #52, #53 ) ) REPRESENTATION_CONTEXT ( 'NONE', 'WORKASPACE' ) );
#215 = AXIS2_PLACEMENT_3D ( 'NONE', #126, #127, #128 ) ;
#216 = AXIS2_PLACEMENT_3D ( 'NONE', #147, #148, #149 ) ;
#217 = VECTOR ( 'NONE', #122, 39.37007874015748100 ) ;
#218 = CLOSED_SHELL ( 'NONE', ( #195, #196, #197, #200, #198, #199 ) ) ;
#219 = PRESENTATION_LAYER_ASSIGNMENT (  '', '', ( #220 ) ) ;
#220 = STYLED_ITEM ( 'NONE', ( #115 ), #175 ) ;
#221 = MECHANICAL_DESIGN_GEOMETRIC_PRESENTATION_REPRESENTATION (  '', ( #220 ), #212 ) ;
#222 = LENGTH_MEASURE_WITH_UNIT ( LENGTH_MEASURE( 0.02539999999999999900 ), #116 );
#223 = AXIS2_PLACEMENT_3D ( 'NONE', #123, #124, #125 ) ;
ENDSEC;
END-ISO-10303-21;
