ISO-10303-21;
HEADER;
FILE_DESCRIPTION (( 'STEP AP214' ),
    '1' );
FILE_NAME ('DH125B-063-BN.step',
    '2012-04-20T20:56:54',
    ( '' ),
    ( '' ),
    'SwSTEP 2.0',
    'SolidWorks 2012',
    '' );
FILE_SCHEMA (( 'AUTOMOTIVE_DESIGN' ));
ENDSEC;

DATA;
#1 = UNCERTAINTY_MEASURE_WITH_UNIT (LENGTH_MEASURE( 1.000000000000000100E-005 ), #17, 'distance_accuracy_value', 'NONE');
#2 = UNCERTAINTY_MEASURE_WITH_UNIT (LENGTH_MEASURE( 1.000000000000000100E-005 ), #31, 'distance_accuracy_value', 'NONE');
#3 = ADVANCED_BREP_SHAPE_REPRESENTATION ( 'DH125B-063-BN', ( #175, #61 ), #210 ) ;
#4 =( NAMED_UNIT ( * ) SI_UNIT ( $, .STERADIAN. ) SOLID_ANGLE_UNIT ( ) );
#5 = APPLICATION_PROTOCOL_DEFINITION ( 'draft international standard', 'automotive_design', 1998, #178 ) ;
#6 = PRODUCT_CONTEXT ( 'NONE', #177, 'mechanical' ) ;
#7 = DIRECTION ( 'NONE',  ( 1.000000000000000000, 0.0000000000000000000, 0.0000000000000000000 ) ) ;
#8 = DIRECTION ( 'NONE',  ( 0.0000000000000000000, 0.0000000000000000000, 1.000000000000000000 ) ) ;
#9 = CARTESIAN_POINT ( 'NONE',  ( 0.0000000000000000000, 0.0000000000000000000, 0.0000000000000000000 ) ) ;
#10 = APPLICATION_PROTOCOL_DEFINITION ( 'draft international standard', 'automotive_design', 1998, #177 ) ;
#11 = DIRECTION ( 'NONE',  ( 0.0000000000000000000, 0.0000000000000000000, 1.000000000000000000 ) ) ;
#12 = CARTESIAN_POINT ( 'NONE',  ( 0.0000000000000000000, 0.0000000000000000000, 0.1250000000000000000 ) ) ;
#13 = DIRECTION ( 'NONE',  ( 1.000000000000000000, 0.0000000000000000000, 0.0000000000000000000 ) ) ;
#14 = DIRECTION ( 'NONE',  ( 0.0000000000000000000, 0.0000000000000000000, 1.000000000000000000 ) ) ;
#15 =( NAMED_UNIT ( * ) PLANE_ANGLE_UNIT ( ) SI_UNIT ( $, .RADIAN. ) );
#16 =( LENGTH_UNIT ( ) NAMED_UNIT ( * ) SI_UNIT ( $, .METRE. ) );
#17 =( CONVERSION_BASED_UNIT ( 'INCH', #60 ) LENGTH_UNIT ( ) NAMED_UNIT ( #171 ) );
#18 = PRESENTATION_STYLE_ASSIGNMENT (( #26 ) ) ;
#19 = SURFACE_SIDE_STYLE ('',( #20 ) ) ;
#20 = SURFACE_STYLE_FILL_AREA ( #23 ) ;
#21 = FILL_AREA_STYLE_COLOUR ( '', #183 ) ;
#22 = SHAPE_DEFINITION_REPRESENTATION ( #173, #3 ) ;
#23 = FILL_AREA_STYLE ('',( #21 ) ) ;
#24 =( LENGTH_UNIT ( ) NAMED_UNIT ( * ) SI_UNIT ( $, .METRE. ) );
#25 =( NAMED_UNIT ( * ) SI_UNIT ( $, .STERADIAN. ) SOLID_ANGLE_UNIT ( ) );
#26 = SURFACE_STYLE_USAGE ( .BOTH. , #19 ) ;
#27 =( NAMED_UNIT ( * ) PLANE_ANGLE_UNIT ( ) SI_UNIT ( $, .RADIAN. ) );
#28 = DIRECTION ( 'NONE',  ( -0.0000000000000000000, -0.0000000000000000000, -1.000000000000000000 ) ) ;
#29 = CARTESIAN_POINT ( 'NONE',  ( 0.1250000000000000600, 1.530808498934192100E-017, 0.1250000000000000000 ) ) ;
#30 = LINE ( 'NONE', #29, #56 ) ;
#31 =( CONVERSION_BASED_UNIT ( 'INCH', #39 ) LENGTH_UNIT ( ) NAMED_UNIT ( #170 ) );
#32 = DIRECTION ( 'NONE',  ( 1.000000000000000000, 0.0000000000000000000, 0.0000000000000000000 ) ) ;
#33 = FACE_OUTER_BOUND ( 'NONE', #168, .T. ) ;
#34 = CYLINDRICAL_SURFACE ( 'NONE', #35, 0.1250000000000000600 ) ;
#35 = AXIS2_PLACEMENT_3D ( 'NONE', #104, #103, #102 ) ;
#36 = FACE_BOUND ( 'NONE', #167, .T. ) ;
#37 = FACE_BOUND ( 'NONE', #119, .T. ) ;
#38 = FACE_OUTER_BOUND ( 'NONE', #164, .T. ) ;
#39 = LENGTH_MEASURE_WITH_UNIT ( LENGTH_MEASURE( 0.02539999999999999900 ), #24 );
#40 = AXIS2_PLACEMENT_3D ( 'NONE', #100, #99, #98 ) ;
#41 = AXIS2_PLACEMENT_3D ( 'NONE', #93, #92, #91 ) ;
#42 = FACE_OUTER_BOUND ( 'NONE', #166, .T. ) ;
#43 = AXIS2_PLACEMENT_3D ( 'NONE', #90, #89, #88 ) ;
#44 = AXIS2_PLACEMENT_3D ( 'NONE', #96, #95, #94 ) ;
#45 = CYLINDRICAL_SURFACE ( 'NONE', #41, 0.1250000000000000600 ) ;
#46 = AXIS2_PLACEMENT_3D ( 'NONE', #69, #68, #67 ) ;
#47 = AXIS2_PLACEMENT_3D ( 'NONE', #87, #86, #85 ) ;
#48 = AXIS2_PLACEMENT_3D ( 'NONE', #84, #83, #82 ) ;
#49 = AXIS2_PLACEMENT_3D ( 'NONE', #81, #80, #79 ) ;
#50 = VECTOR ( 'NONE', #75, 39.37007874015748100 ) ;
#51 = AXIS2_PLACEMENT_3D ( 'NONE', #78, #71, #70 ) ;
#52 = VECTOR ( 'NONE', #72, 39.37007874015748100 ) ;
#53 = AXIS2_PLACEMENT_3D ( 'NONE', #12, #11, #32 ) ;
#54 = VECTOR ( 'NONE', #63, 39.37007874015748100 ) ;
#55 = AXIS2_PLACEMENT_3D ( 'NONE', #66, #14, #13 ) ;
#56 = VECTOR ( 'NONE', #28, 39.37007874015748100 ) ;
#57 = STYLED_ITEM ( 'NONE', ( #18 ), #3 ) ;
#58 = PRESENTATION_LAYER_ASSIGNMENT (  '', '', ( #57 ) ) ;
#59 = MECHANICAL_DESIGN_GEOMETRIC_PRESENTATION_REPRESENTATION (  '', ( #57 ), #211 ) ;
#60 = LENGTH_MEASURE_WITH_UNIT ( LENGTH_MEASURE( 0.02539999999999999900 ), #16 );
#61 = AXIS2_PLACEMENT_3D ( 'NONE', #9, #8, #7 ) ;
#62 = PRODUCT_DEFINITION_FORMATION_WITH_SPECIFIED_SOURCE ( 'ANY', '', #172, .NOT_KNOWN. ) ;
#63 = DIRECTION ( 'NONE',  ( -0.0000000000000000000, -0.0000000000000000000, -1.000000000000000000 ) ) ;
#64 = CARTESIAN_POINT ( 'NONE',  ( -0.03124999999999997600, 0.0000000000000000000, 0.1250000000000000000 ) ) ;
#65 = LINE ( 'NONE', #64, #54 ) ;
#66 = CARTESIAN_POINT ( 'NONE',  ( 0.0000000000000000000, 0.0000000000000000000, 0.0000000000000000000 ) ) ;
#67 = DIRECTION ( 'NONE',  ( 1.000000000000000000, 0.0000000000000000000, 0.0000000000000000000 ) ) ;
#68 = DIRECTION ( 'NONE',  ( 0.0000000000000000000, 0.0000000000000000000, 1.000000000000000000 ) ) ;
#69 = CARTESIAN_POINT ( 'NONE',  ( 0.0000000000000000000, 0.0000000000000000000, 0.0000000000000000000 ) ) ;
#70 = DIRECTION ( 'NONE',  ( 1.000000000000000000, 0.0000000000000000000, 0.0000000000000000000 ) ) ;
#71 = DIRECTION ( 'NONE',  ( 0.0000000000000000000, 0.0000000000000000000, 1.000000000000000000 ) ) ;
#72 = DIRECTION ( 'NONE',  ( -0.0000000000000000000, -0.0000000000000000000, -1.000000000000000000 ) ) ;
#73 = CARTESIAN_POINT ( 'NONE',  ( 0.03124999999999997600, 3.827021247335475700E-018, 0.1250000000000000000 ) ) ;
#74 = LINE ( 'NONE', #73, #52 ) ;
#75 = DIRECTION ( 'NONE',  ( -0.0000000000000000000, -0.0000000000000000000, -1.000000000000000000 ) ) ;
#76 = CARTESIAN_POINT ( 'NONE',  ( -0.1250000000000000600, 0.0000000000000000000, 0.1250000000000000000 ) ) ;
#77 = LINE ( 'NONE', #76, #50 ) ;
#78 = CARTESIAN_POINT ( 'NONE',  ( 0.0000000000000000000, 0.0000000000000000000, 0.1250000000000000000 ) ) ;
#79 = DIRECTION ( 'NONE',  ( 1.000000000000000000, 0.0000000000000000000, 0.0000000000000000000 ) ) ;
#80 = DIRECTION ( 'NONE',  ( 0.0000000000000000000, 0.0000000000000000000, 1.000000000000000000 ) ) ;
#81 = CARTESIAN_POINT ( 'NONE',  ( 0.0000000000000000000, 0.0000000000000000000, 0.1250000000000000000 ) ) ;
#82 = DIRECTION ( 'NONE',  ( 1.000000000000000000, 0.0000000000000000000, 0.0000000000000000000 ) ) ;
#83 = DIRECTION ( 'NONE',  ( 0.0000000000000000000, 0.0000000000000000000, 1.000000000000000000 ) ) ;
#84 = CARTESIAN_POINT ( 'NONE',  ( 0.0000000000000000000, 0.0000000000000000000, 0.1250000000000000000 ) ) ;
#85 = DIRECTION ( 'NONE',  ( 1.000000000000000000, 0.0000000000000000000, 0.0000000000000000000 ) ) ;
#86 = DIRECTION ( 'NONE',  ( 0.0000000000000000000, 0.0000000000000000000, 1.000000000000000000 ) ) ;
#87 = CARTESIAN_POINT ( 'NONE',  ( 0.0000000000000000000, 0.0000000000000000000, 0.0000000000000000000 ) ) ;
#88 = DIRECTION ( 'NONE',  ( 1.000000000000000000, 0.0000000000000000000, 0.0000000000000000000 ) ) ;
#89 = DIRECTION ( 'NONE',  ( 0.0000000000000000000, 0.0000000000000000000, 1.000000000000000000 ) ) ;
#90 = CARTESIAN_POINT ( 'NONE',  ( 0.0000000000000000000, 0.0000000000000000000, 0.0000000000000000000 ) ) ;
#91 = DIRECTION ( 'NONE',  ( -1.000000000000000000, 0.0000000000000000000, 0.0000000000000000000 ) ) ;
#92 = DIRECTION ( 'NONE',  ( -0.0000000000000000000, -0.0000000000000000000, -1.000000000000000000 ) ) ;
#93 = CARTESIAN_POINT ( 'NONE',  ( 0.0000000000000000000, 0.0000000000000000000, 0.1250000000000000000 ) ) ;
#94 = DIRECTION ( 'NONE',  ( 1.000000000000000000, 0.0000000000000000000, -0.0000000000000000000 ) ) ;
#95 = DIRECTION ( 'NONE',  ( 0.0000000000000000000, 0.0000000000000000000, 1.000000000000000000 ) ) ;
#96 = CARTESIAN_POINT ( 'NONE',  ( 0.0000000000000000000, 0.0000000000000000000, 0.1250000000000000000 ) ) ;
#97 = PLANE ( 'NONE',  #44 ) ;
#98 = DIRECTION ( 'NONE',  ( 1.000000000000000000, 0.0000000000000000000, -0.0000000000000000000 ) ) ;
#99 = DIRECTION ( 'NONE',  ( 0.0000000000000000000, 0.0000000000000000000, 1.000000000000000000 ) ) ;
#100 = CARTESIAN_POINT ( 'NONE',  ( 0.0000000000000000000, 0.0000000000000000000, 0.0000000000000000000 ) ) ;
#101 = PLANE ( 'NONE',  #40 ) ;
#102 = DIRECTION ( 'NONE',  ( -1.000000000000000000, 0.0000000000000000000, 0.0000000000000000000 ) ) ;
#103 = DIRECTION ( 'NONE',  ( -0.0000000000000000000, -0.0000000000000000000, -1.000000000000000000 ) ) ;
#104 = CARTESIAN_POINT ( 'NONE',  ( 0.0000000000000000000, 0.0000000000000000000, 0.1250000000000000000 ) ) ;
#105 = DIRECTION ( 'NONE',  ( -1.000000000000000000, 0.0000000000000000000, 0.0000000000000000000 ) ) ;
#106 = DIRECTION ( 'NONE',  ( -0.0000000000000000000, -0.0000000000000000000, -1.000000000000000000 ) ) ;
#107 = CARTESIAN_POINT ( 'NONE',  ( 0.0000000000000000000, 0.0000000000000000000, 0.1250000000000000000 ) ) ;
#108 = DIRECTION ( 'NONE',  ( -1.000000000000000000, 0.0000000000000000000, 0.0000000000000000000 ) ) ;
#109 = DIRECTION ( 'NONE',  ( -0.0000000000000000000, -0.0000000000000000000, -1.000000000000000000 ) ) ;
#110 = CARTESIAN_POINT ( 'NONE',  ( 0.0000000000000000000, 0.0000000000000000000, 0.1250000000000000000 ) ) ;
#111 =( NAMED_UNIT ( * ) SI_UNIT ( $, .STERADIAN. ) SOLID_ANGLE_UNIT ( ) );
#112 =( NAMED_UNIT ( * ) PLANE_ANGLE_UNIT ( ) SI_UNIT ( $, .RADIAN. ) );
#113 =( CONVERSION_BASED_UNIT ( 'INCH', #221 ) LENGTH_UNIT ( ) NAMED_UNIT ( #169 ) );
#114 =( LENGTH_UNIT ( ) NAMED_UNIT ( * ) SI_UNIT ( $, .METRE. ) );
#115 = PRESENTATION_STYLE_ASSIGNMENT (( #116 ) ) ;
#116 = SURFACE_STYLE_USAGE ( .BOTH. , #117 ) ;
#117 = SURFACE_SIDE_STYLE ('',( #120 ) ) ;
#118 = EDGE_LOOP ( 'NONE', ( #144, #140, #139, #141 ) ) ;
#119 = EDGE_LOOP ( 'NONE', ( #145, #142 ) ) ;
#120 = SURFACE_STYLE_FILL_AREA ( #121 ) ;
#121 = FILL_AREA_STYLE ('',( #122 ) ) ;
#122 = FILL_AREA_STYLE_COLOUR ( '', #179 ) ;
#123 = CARTESIAN_POINT ( 'NONE',  ( -0.1250000000000000600, 0.0000000000000000000, 0.0000000000000000000 ) ) ;
#124 = CARTESIAN_POINT ( 'NONE',  ( 0.1250000000000000600, 1.530808498934192100E-017, 0.0000000000000000000 ) ) ;
#125 = CARTESIAN_POINT ( 'NONE',  ( -0.1250000000000000600, 0.0000000000000000000, 0.1250000000000000000 ) ) ;
#126 = CARTESIAN_POINT ( 'NONE',  ( 0.1250000000000000600, 1.530808498934192100E-017, 0.1250000000000000000 ) ) ;
#127 = CARTESIAN_POINT ( 'NONE',  ( 0.03124999999999997600, 3.827021247335475700E-018, 0.0000000000000000000 ) ) ;
#128 = CARTESIAN_POINT ( 'NONE',  ( 0.03124999999999997600, 3.827021247335475700E-018, 0.1250000000000000000 ) ) ;
#129 = CARTESIAN_POINT ( 'NONE',  ( -0.03124999999999997600, 0.0000000000000000000, 0.1250000000000000000 ) ) ;
#130 = CARTESIAN_POINT ( 'NONE',  ( -0.03124999999999997600, 0.0000000000000000000, 0.0000000000000000000 ) ) ;
#131 = VERTEX_POINT ( 'NONE', #130 ) ;
#132 = VERTEX_POINT ( 'NONE', #129 ) ;
#133 = VERTEX_POINT ( 'NONE', #128 ) ;
#134 = VERTEX_POINT ( 'NONE', #127 ) ;
#135 = ORIENTED_EDGE ( 'NONE', *, *, #205, .T. ) ;
#136 = ORIENTED_EDGE ( 'NONE', *, *, #199, .T. ) ;
#137 = ORIENTED_EDGE ( 'NONE', *, *, #202, .F. ) ;
#138 = ORIENTED_EDGE ( 'NONE', *, *, #197, .F. ) ;
#139 = ORIENTED_EDGE ( 'NONE', *, *, #201, .T. ) ;
#140 = ORIENTED_EDGE ( 'NONE', *, *, #200, .F. ) ;
#141 = ORIENTED_EDGE ( 'NONE', *, *, #198, .T. ) ;
#142 = ORIENTED_EDGE ( 'NONE', *, *, #197, .T. ) ;
#143 = ORIENTED_EDGE ( 'NONE', *, *, #207, .F. ) ;
#144 = ORIENTED_EDGE ( 'NONE', *, *, #206, .F. ) ;
#145 = ORIENTED_EDGE ( 'NONE', *, *, #204, .T. ) ;
#146 = ORIENTED_EDGE ( 'NONE', *, *, #199, .F. ) ;
#147 = ORIENTED_EDGE ( 'NONE', *, *, #208, .T. ) ;
#148 = ORIENTED_EDGE ( 'NONE', *, *, #198, .F. ) ;
#149 = ORIENTED_EDGE ( 'NONE', *, *, #203, .F. ) ;
#150 = ORIENTED_EDGE ( 'NONE', *, *, #200, .T. ) ;
#151 = ORIENTED_EDGE ( 'NONE', *, *, #203, .T. ) ;
#152 = ORIENTED_EDGE ( 'NONE', *, *, #204, .F. ) ;
#153 = ORIENTED_EDGE ( 'NONE', *, *, #202, .T. ) ;
#154 = ORIENTED_EDGE ( 'NONE', *, *, #205, .F. ) ;
#155 = ORIENTED_EDGE ( 'NONE', *, *, #208, .F. ) ;
#156 = ORIENTED_EDGE ( 'NONE', *, *, #207, .T. ) ;
#157 = ORIENTED_EDGE ( 'NONE', *, *, #206, .T. ) ;
#158 = ORIENTED_EDGE ( 'NONE', *, *, #201, .F. ) ;
#159 = VERTEX_POINT ( 'NONE', #126 ) ;
#160 = VERTEX_POINT ( 'NONE', #125 ) ;
#161 = VERTEX_POINT ( 'NONE', #124 ) ;
#162 = VERTEX_POINT ( 'NONE', #123 ) ;
#163 = EDGE_LOOP ( 'NONE', ( #137, #136, #135, #138 ) ) ;
#164 = EDGE_LOOP ( 'NONE', ( #150, #147 ) ) ;
#165 = EDGE_LOOP ( 'NONE', ( #151, #153, #152, #154 ) ) ;
#166 = EDGE_LOOP ( 'NONE', ( #155, #157, #156, #158 ) ) ;
#167 = EDGE_LOOP ( 'NONE', ( #149, #146 ) ) ;
#168 = EDGE_LOOP ( 'NONE', ( #148, #143 ) ) ;
#169 = DIMENSIONAL_EXPONENTS ( 1.000000000000000000, 0.0000000000000000000, 0.0000000000000000000, 0.0000000000000000000, 0.0000000000000000000, 0.0000000000000000000, 0.0000000000000000000 ) ;
#170 = DIMENSIONAL_EXPONENTS ( 1.000000000000000000, 0.0000000000000000000, 0.0000000000000000000, 0.0000000000000000000, 0.0000000000000000000, 0.0000000000000000000, 0.0000000000000000000 ) ;
#171 = DIMENSIONAL_EXPONENTS ( 1.000000000000000000, 0.0000000000000000000, 0.0000000000000000000, 0.0000000000000000000, 0.0000000000000000000, 0.0000000000000000000, 0.0000000000000000000 ) ;
#172 = PRODUCT ( 'DH125B-063-BN', 'DH125B-063-BN', '', ( #6 ) ) ;
#173 = PRODUCT_DEFINITION_SHAPE ( 'NONE', 'NONE',  #182 ) ;
#174 = PRODUCT_DEFINITION_CONTEXT ( 'detailed design', #178, 'design' ) ;
#175 = MANIFOLD_SOLID_BREP ( 'Boss-Extrude1', #220 ) ;
#176 = UNCERTAINTY_MEASURE_WITH_UNIT (LENGTH_MEASURE( 1.000000000000000100E-005 ), #113, 'distance_accuracy_value', 'NONE');
#177 = APPLICATION_CONTEXT ( 'automotive_design' ) ;
#178 = APPLICATION_CONTEXT ( 'automotive_design' ) ;
#179 = COLOUR_RGB ( '',0.5686274509803921400, 0.5490196078431373000, 0.5098039215686274200 ) ;
#180 = ADVANCED_FACE ( 'NONE', ( #222 ), #223, .F. ) ;
#181 = PRODUCT_RELATED_PRODUCT_CATEGORY ( 'part', '', ( #172 ) ) ;
#182 = PRODUCT_DEFINITION ( 'UNKNOWN', '', #62, #174 ) ;
#183 = COLOUR_RGB ( '',0.5686274509803921400, 0.5490196078431373000, 0.5098039215686274200 ) ;
#184 = CIRCLE ( 'NONE', #53, 0.1250000000000000600 ) ;
#185 = CIRCLE ( 'NONE', #55, 0.1250000000000000600 ) ;
#186 = CIRCLE ( 'NONE', #46, 0.03124999999999997600 ) ;
#187 = CIRCLE ( 'NONE', #51, 0.03124999999999997600 ) ;
#188 = CIRCLE ( 'NONE', #49, 0.1250000000000000600 ) ;
#189 = CIRCLE ( 'NONE', #43, 0.03124999999999997600 ) ;
#190 = CIRCLE ( 'NONE', #47, 0.1250000000000000600 ) ;
#191 = CIRCLE ( 'NONE', #48, 0.03124999999999997600 ) ;
#192 = ADVANCED_FACE ( 'NONE', ( #214 ), #213, .F. ) ;
#193 = ADVANCED_FACE ( 'NONE', ( #212 ), #34, .T. ) ;
#194 = ADVANCED_FACE ( 'NONE', ( #33, #37 ), #101, .F. ) ;
#195 = ADVANCED_FACE ( 'NONE', ( #38, #36 ), #97, .T. ) ;
#196 = ADVANCED_FACE ( 'NONE', ( #42 ), #45, .T. ) ;
#197 = EDGE_CURVE ( 'NONE', #134, #131, #189, .T. ) ;
#198 = EDGE_CURVE ( 'NONE', #162, #161, #190, .T. ) ;
#199 = EDGE_CURVE ( 'NONE', #133, #132, #191, .T. ) ;
#200 = EDGE_CURVE ( 'NONE', #160, #159, #188, .T. ) ;
#201 = EDGE_CURVE ( 'NONE', #160, #162, #77, .T. ) ;
#202 = EDGE_CURVE ( 'NONE', #133, #134, #74, .T. ) ;
#203 = EDGE_CURVE ( 'NONE', #132, #133, #187, .T. ) ;
#204 = EDGE_CURVE ( 'NONE', #131, #134, #186, .T. ) ;
#205 = EDGE_CURVE ( 'NONE', #132, #131, #65, .T. ) ;
#206 = EDGE_CURVE ( 'NONE', #159, #161, #30, .T. ) ;
#207 = EDGE_CURVE ( 'NONE', #161, #162, #185, .T. ) ;
#208 = EDGE_CURVE ( 'NONE', #159, #160, #184, .T. ) ;
#209 =( GEOMETRIC_REPRESENTATION_CONTEXT ( 3 ) GLOBAL_UNCERTAINTY_ASSIGNED_CONTEXT ( ( #176 ) ) GLOBAL_UNIT_ASSIGNED_CONTEXT ( ( #113, #112, #111 ) ) REPRESENTATION_CONTEXT ( 'NONE', 'WORKASPACE' ) );
#210 =( GEOMETRIC_REPRESENTATION_CONTEXT ( 3 ) GLOBAL_UNCERTAINTY_ASSIGNED_CONTEXT ( ( #2 ) ) GLOBAL_UNIT_ASSIGNED_CONTEXT ( ( #31, #27, #25 ) ) REPRESENTATION_CONTEXT ( 'NONE', 'WORKASPACE' ) );
#211 =( GEOMETRIC_REPRESENTATION_CONTEXT ( 3 ) GLOBAL_UNCERTAINTY_ASSIGNED_CONTEXT ( ( #1 ) ) GLOBAL_UNIT_ASSIGNED_CONTEXT ( ( #17, #15, #4 ) ) REPRESENTATION_CONTEXT ( 'NONE', 'WORKASPACE' ) );
#212 = FACE_OUTER_BOUND ( 'NONE', #118, .T. ) ;
#213 = CYLINDRICAL_SURFACE ( 'NONE', #216, 0.03124999999999997600 ) ;
#214 = FACE_OUTER_BOUND ( 'NONE', #163, .T. ) ;
#215 = AXIS2_PLACEMENT_3D ( 'NONE', #110, #109, #108 ) ;
#216 = AXIS2_PLACEMENT_3D ( 'NONE', #107, #106, #105 ) ;
#217 = STYLED_ITEM ( 'NONE', ( #115 ), #175 ) ;
#218 = PRESENTATION_LAYER_ASSIGNMENT (  '', '', ( #217 ) ) ;
#219 = MECHANICAL_DESIGN_GEOMETRIC_PRESENTATION_REPRESENTATION (  '', ( #217 ), #209 ) ;
#220 = CLOSED_SHELL ( 'NONE', ( #180, #196, #195, #194, #193, #192 ) ) ;
#221 = LENGTH_MEASURE_WITH_UNIT ( LENGTH_MEASURE( 0.02539999999999999900 ), #114 );
#222 = FACE_OUTER_BOUND ( 'NONE', #165, .T. ) ;
#223 = CYLINDRICAL_SURFACE ( 'NONE', #215, 0.03124999999999997600 ) ;
ENDSEC;
END-ISO-10303-21;
