ISO-10303-21;
HEADER;
FILE_DESCRIPTION (( 'STEP AP214' ),
    '1' );
FILE_NAME ('DH125B-063.step',
    '2012-04-20T20:56:56',
    ( '' ),
    ( '' ),
    'SwSTEP 2.0',
    'SolidWorks 2012',
    '' );
FILE_SCHEMA (( 'AUTOMOTIVE_DESIGN' ));
ENDSEC;

DATA;
#1 = UNCERTAINTY_MEASURE_WITH_UNIT (LENGTH_MEASURE( 1.000000000000000100E-005 ), #56, 'distance_accuracy_value', 'NONE');
#2 = ADVANCED_BREP_SHAPE_REPRESENTATION ( 'DH125B-063', ( #178, #33 ), #172 ) ;
#3 = UNCERTAINTY_MEASURE_WITH_UNIT (LENGTH_MEASURE( 1.000000000000000100E-005 ), #123, 'distance_accuracy_value', 'NONE');
#4 = UNCERTAINTY_MEASURE_WITH_UNIT (LENGTH_MEASURE( 1.000000000000000100E-005 ), #46, 'distance_accuracy_value', 'NONE');
#5 = CYLINDRICAL_SURFACE ( 'NONE', #29, 0.03125000000000001400 ) ;
#6 = FACE_OUTER_BOUND ( 'NONE', #61, .T. ) ;
#7 = AXIS2_PLACEMENT_3D ( 'NONE', #99, #98, #97 ) ;
#8 = LENGTH_MEASURE_WITH_UNIT ( LENGTH_MEASURE( 0.02539999999999999900 ), #45 );
#9 = CYLINDRICAL_SURFACE ( 'NONE', #7, 0.1250000000000000000 ) ;
#10 = FACE_OUTER_BOUND ( 'NONE', #60, .T. ) ;
#11 = AXIS2_PLACEMENT_3D ( 'NONE', #96, #95, #94 ) ;
#12 = CYLINDRICAL_SURFACE ( 'NONE', #11, 0.03125000000000001400 ) ;
#13 = FACE_OUTER_BOUND ( 'NONE', #62, .T. ) ;
#14 = AXIS2_PLACEMENT_3D ( 'NONE', #93, #92, #91 ) ;
#15 = CYLINDRICAL_SURFACE ( 'NONE', #14, 0.1250000000000000000 ) ;
#16 = FACE_BOUND ( 'NONE', #63, .T. ) ;
#17 = FACE_BOUND ( 'NONE', #113, .T. ) ;
#18 = FACE_OUTER_BOUND ( 'NONE', #170, .T. ) ;
#19 = AXIS2_PLACEMENT_3D ( 'NONE', #89, #88, #87 ) ;
#20 = AXIS2_PLACEMENT_3D ( 'NONE', #67, #66, #65 ) ;
#21 = AXIS2_PLACEMENT_3D ( 'NONE', #59, #42, #41 ) ;
#22 = AXIS2_PLACEMENT_3D ( 'NONE', #70, #69, #68 ) ;
#23 = AXIS2_PLACEMENT_3D ( 'NONE', #85, #84, #83 ) ;
#24 = VECTOR ( 'NONE', #80, 39.37007874015748100 ) ;
#25 = AXIS2_PLACEMENT_3D ( 'NONE', #79, #75, #74 ) ;
#26 = VECTOR ( 'NONE', #76, 39.37007874015748100 ) ;
#27 = AXIS2_PLACEMENT_3D ( 'NONE', #108, #107, #106 ) ;
#28 = FACE_OUTER_BOUND ( 'NONE', #114, .T. ) ;
#29 = AXIS2_PLACEMENT_3D ( 'NONE', #102, #101, #100 ) ;
#30 = AXIS2_PLACEMENT_3D ( 'NONE', #73, #72, #71 ) ;
#31 = MECHANICAL_DESIGN_GEOMETRIC_PRESENTATION_REPRESENTATION (  '', ( #34 ), #171 ) ;
#32 = LENGTH_MEASURE_WITH_UNIT ( LENGTH_MEASURE( 0.02539999999999999900 ), #51 );
#33 = AXIS2_PLACEMENT_3D ( 'NONE', #40, #39, #38 ) ;
#34 = STYLED_ITEM ( 'NONE', ( #48 ), #2 ) ;
#35 = PRESENTATION_LAYER_ASSIGNMENT (  '', '', ( #34 ) ) ;
#36 = PRODUCT_CONTEXT ( 'NONE', #211, 'mechanical' ) ;
#37 = SHAPE_DEFINITION_REPRESENTATION ( #180, #2 ) ;
#38 = DIRECTION ( 'NONE',  ( 1.000000000000000000, 0.0000000000000000000, 0.0000000000000000000 ) ) ;
#39 = DIRECTION ( 'NONE',  ( 0.0000000000000000000, 0.0000000000000000000, 1.000000000000000000 ) ) ;
#40 = CARTESIAN_POINT ( 'NONE',  ( 0.0000000000000000000, 0.0000000000000000000, 0.0000000000000000000 ) ) ;
#41 = DIRECTION ( 'NONE',  ( 1.000000000000000000, 0.0000000000000000000, 0.0000000000000000000 ) ) ;
#42 = DIRECTION ( 'NONE',  ( 0.0000000000000000000, 0.0000000000000000000, 1.000000000000000000 ) ) ;
#43 = APPLICATION_PROTOCOL_DEFINITION ( 'draft international standard', 'automotive_design', 1998, #212 ) ;
#44 =( NAMED_UNIT ( * ) SI_UNIT ( $, .STERADIAN. ) SOLID_ANGLE_UNIT ( ) );
#45 =( LENGTH_UNIT ( ) NAMED_UNIT ( * ) SI_UNIT ( $, .METRE. ) );
#46 =( CONVERSION_BASED_UNIT ( 'INCH', #8 ) LENGTH_UNIT ( ) NAMED_UNIT ( #177 ) );
#47 =( NAMED_UNIT ( * ) PLANE_ANGLE_UNIT ( ) SI_UNIT ( $, .RADIAN. ) );
#48 = PRESENTATION_STYLE_ASSIGNMENT (( #49 ) ) ;
#49 = SURFACE_STYLE_USAGE ( .BOTH. , #50 ) ;
#50 = SURFACE_SIDE_STYLE ('',( #58 ) ) ;
#51 =( LENGTH_UNIT ( ) NAMED_UNIT ( * ) SI_UNIT ( $, .METRE. ) );
#52 = FILL_AREA_STYLE_COLOUR ( '', #188 ) ;
#53 = APPLICATION_PROTOCOL_DEFINITION ( 'draft international standard', 'automotive_design', 1998, #211 ) ;
#54 =( NAMED_UNIT ( * ) SI_UNIT ( $, .STERADIAN. ) SOLID_ANGLE_UNIT ( ) );
#55 =( NAMED_UNIT ( * ) PLANE_ANGLE_UNIT ( ) SI_UNIT ( $, .RADIAN. ) );
#56 =( CONVERSION_BASED_UNIT ( 'INCH', #32 ) LENGTH_UNIT ( ) NAMED_UNIT ( #174 ) );
#57 = FILL_AREA_STYLE ('',( #52 ) ) ;
#58 = SURFACE_STYLE_FILL_AREA ( #57 ) ;
#59 = CARTESIAN_POINT ( 'NONE',  ( 0.0000000000000000000, 0.0000000000000000000, 0.0000000000000000000 ) ) ;
#60 = EDGE_LOOP ( 'NONE', ( #166, #169, #168, #162 ) ) ;
#61 = EDGE_LOOP ( 'NONE', ( #141, #143, #140, #142 ) ) ;
#62 = EDGE_LOOP ( 'NONE', ( #167, #160 ) ) ;
#63 = EDGE_LOOP ( 'NONE', ( #150, #155 ) ) ;
#64 = VERTEX_POINT ( 'NONE', #138 ) ;
#65 = DIRECTION ( 'NONE',  ( 1.000000000000000000, 0.0000000000000000000, 0.0000000000000000000 ) ) ;
#66 = DIRECTION ( 'NONE',  ( 0.0000000000000000000, 0.0000000000000000000, 1.000000000000000000 ) ) ;
#67 = CARTESIAN_POINT ( 'NONE',  ( 0.0000000000000000000, 0.0000000000000000000, 0.0000000000000000000 ) ) ;
#68 = DIRECTION ( 'NONE',  ( 1.000000000000000000, 0.0000000000000000000, 0.0000000000000000000 ) ) ;
#69 = DIRECTION ( 'NONE',  ( 0.0000000000000000000, 0.0000000000000000000, 1.000000000000000000 ) ) ;
#70 = CARTESIAN_POINT ( 'NONE',  ( 0.0000000000000000000, 0.0000000000000000000, 0.1250000000000000000 ) ) ;
#71 = DIRECTION ( 'NONE',  ( 1.000000000000000000, 0.0000000000000000000, 0.0000000000000000000 ) ) ;
#72 = DIRECTION ( 'NONE',  ( 0.0000000000000000000, 0.0000000000000000000, 1.000000000000000000 ) ) ;
#73 = CARTESIAN_POINT ( 'NONE',  ( 0.0000000000000000000, 0.0000000000000000000, 0.1250000000000000000 ) ) ;
#74 = DIRECTION ( 'NONE',  ( 1.000000000000000000, 0.0000000000000000000, 0.0000000000000000000 ) ) ;
#75 = DIRECTION ( 'NONE',  ( 0.0000000000000000000, 0.0000000000000000000, 1.000000000000000000 ) ) ;
#76 = DIRECTION ( 'NONE',  ( -0.0000000000000000000, -0.0000000000000000000, -1.000000000000000000 ) ) ;
#77 = CARTESIAN_POINT ( 'NONE',  ( -0.03125000000000001400, 0.0000000000000000000, 0.1250000000000000000 ) ) ;
#78 = LINE ( 'NONE', #77, #26 ) ;
#79 = CARTESIAN_POINT ( 'NONE',  ( 0.0000000000000000000, 0.0000000000000000000, 0.0000000000000000000 ) ) ;
#80 = DIRECTION ( 'NONE',  ( -0.0000000000000000000, -0.0000000000000000000, -1.000000000000000000 ) ) ;
#81 = CARTESIAN_POINT ( 'NONE',  ( 0.03125000000000001400, 3.827021247335480300E-018, 0.1250000000000000000 ) ) ;
#82 = LINE ( 'NONE', #81, #24 ) ;
#83 = DIRECTION ( 'NONE',  ( 1.000000000000000000, 0.0000000000000000000, -0.0000000000000000000 ) ) ;
#84 = DIRECTION ( 'NONE',  ( 0.0000000000000000000, 0.0000000000000000000, 1.000000000000000000 ) ) ;
#85 = CARTESIAN_POINT ( 'NONE',  ( 0.0000000000000000000, 0.0000000000000000000, 0.0000000000000000000 ) ) ;
#86 = PLANE ( 'NONE',  #23 ) ;
#87 = DIRECTION ( 'NONE',  ( 1.000000000000000000, 0.0000000000000000000, -0.0000000000000000000 ) ) ;
#88 = DIRECTION ( 'NONE',  ( 0.0000000000000000000, 0.0000000000000000000, 1.000000000000000000 ) ) ;
#89 = CARTESIAN_POINT ( 'NONE',  ( 0.0000000000000000000, 0.0000000000000000000, 0.1250000000000000000 ) ) ;
#90 = PLANE ( 'NONE',  #19 ) ;
#91 = DIRECTION ( 'NONE',  ( -1.000000000000000000, 0.0000000000000000000, 0.0000000000000000000 ) ) ;
#92 = DIRECTION ( 'NONE',  ( -0.0000000000000000000, -0.0000000000000000000, -1.000000000000000000 ) ) ;
#93 = CARTESIAN_POINT ( 'NONE',  ( 0.0000000000000000000, 0.0000000000000000000, 0.1250000000000000000 ) ) ;
#94 = DIRECTION ( 'NONE',  ( -1.000000000000000000, 0.0000000000000000000, 0.0000000000000000000 ) ) ;
#95 = DIRECTION ( 'NONE',  ( -0.0000000000000000000, -0.0000000000000000000, -1.000000000000000000 ) ) ;
#96 = CARTESIAN_POINT ( 'NONE',  ( 0.0000000000000000000, 0.0000000000000000000, 0.1250000000000000000 ) ) ;
#97 = DIRECTION ( 'NONE',  ( -1.000000000000000000, 0.0000000000000000000, 0.0000000000000000000 ) ) ;
#98 = DIRECTION ( 'NONE',  ( -0.0000000000000000000, -0.0000000000000000000, -1.000000000000000000 ) ) ;
#99 = CARTESIAN_POINT ( 'NONE',  ( 0.0000000000000000000, 0.0000000000000000000, 0.1250000000000000000 ) ) ;
#100 = DIRECTION ( 'NONE',  ( -1.000000000000000000, 0.0000000000000000000, 0.0000000000000000000 ) ) ;
#101 = DIRECTION ( 'NONE',  ( -0.0000000000000000000, -0.0000000000000000000, -1.000000000000000000 ) ) ;
#102 = CARTESIAN_POINT ( 'NONE',  ( 0.0000000000000000000, 0.0000000000000000000, 0.1250000000000000000 ) ) ;
#103 = DIRECTION ( 'NONE',  ( 1.000000000000000000, 0.0000000000000000000, 0.0000000000000000000 ) ) ;
#104 = DIRECTION ( 'NONE',  ( 0.0000000000000000000, 0.0000000000000000000, 1.000000000000000000 ) ) ;
#105 = CARTESIAN_POINT ( 'NONE',  ( 0.0000000000000000000, 0.0000000000000000000, 0.1250000000000000000 ) ) ;
#106 = DIRECTION ( 'NONE',  ( 1.000000000000000000, 0.0000000000000000000, 0.0000000000000000000 ) ) ;
#107 = DIRECTION ( 'NONE',  ( 0.0000000000000000000, 0.0000000000000000000, 1.000000000000000000 ) ) ;
#108 = CARTESIAN_POINT ( 'NONE',  ( 0.0000000000000000000, 0.0000000000000000000, 0.0000000000000000000 ) ) ;
#109 = DIRECTION ( 'NONE',  ( 1.000000000000000000, 0.0000000000000000000, 0.0000000000000000000 ) ) ;
#110 = DIRECTION ( 'NONE',  ( 0.0000000000000000000, 0.0000000000000000000, 1.000000000000000000 ) ) ;
#111 = DIRECTION ( 'NONE',  ( -0.0000000000000000000, -0.0000000000000000000, -1.000000000000000000 ) ) ;
#112 = CARTESIAN_POINT ( 'NONE',  ( 0.1250000000000000000, 1.530808498934191500E-017, 0.1250000000000000000 ) ) ;
#113 = EDGE_LOOP ( 'NONE', ( #163, #158 ) ) ;
#114 = EDGE_LOOP ( 'NONE', ( #157, #153, #152, #154 ) ) ;
#115 = EDGE_LOOP ( 'NONE', ( #161, #165, #164, #151 ) ) ;
#116 = DIRECTION ( 'NONE',  ( -0.0000000000000000000, -0.0000000000000000000, -1.000000000000000000 ) ) ;
#117 = CARTESIAN_POINT ( 'NONE',  ( 0.0000000000000000000, 0.0000000000000000000, 0.1250000000000000000 ) ) ;
#118 = LINE ( 'NONE', #112, #216 ) ;
#119 = LINE ( 'NONE', #120, #223 ) ;
#120 = CARTESIAN_POINT ( 'NONE',  ( -0.1250000000000000000, 0.0000000000000000000, 0.1250000000000000000 ) ) ;
#121 =( NAMED_UNIT ( * ) SI_UNIT ( $, .STERADIAN. ) SOLID_ANGLE_UNIT ( ) );
#122 =( NAMED_UNIT ( * ) PLANE_ANGLE_UNIT ( ) SI_UNIT ( $, .RADIAN. ) );
#123 =( CONVERSION_BASED_UNIT ( 'INCH', #221 ) LENGTH_UNIT ( ) NAMED_UNIT ( #175 ) );
#124 =( LENGTH_UNIT ( ) NAMED_UNIT ( * ) SI_UNIT ( $, .METRE. ) );
#125 = PRESENTATION_STYLE_ASSIGNMENT (( #126 ) ) ;
#126 = SURFACE_STYLE_USAGE ( .BOTH. , #127 ) ;
#127 = SURFACE_SIDE_STYLE ('',( #128 ) ) ;
#128 = SURFACE_STYLE_FILL_AREA ( #129 ) ;
#129 = FILL_AREA_STYLE ('',( #130 ) ) ;
#130 = FILL_AREA_STYLE_COLOUR ( '', #192 ) ;
#131 = CARTESIAN_POINT ( 'NONE',  ( -0.03125000000000001400, 0.0000000000000000000, 0.1250000000000000000 ) ) ;
#132 = CARTESIAN_POINT ( 'NONE',  ( -0.03125000000000001400, 0.0000000000000000000, 0.0000000000000000000 ) ) ;
#133 = CARTESIAN_POINT ( 'NONE',  ( 0.1250000000000000000, 1.530808498934191500E-017, 0.1250000000000000000 ) ) ;
#134 = CARTESIAN_POINT ( 'NONE',  ( 0.03125000000000001400, 3.827021247335480300E-018, 0.1250000000000000000 ) ) ;
#135 = CARTESIAN_POINT ( 'NONE',  ( 0.03125000000000001400, 3.827021247335480300E-018, 0.0000000000000000000 ) ) ;
#136 = CARTESIAN_POINT ( 'NONE',  ( -0.1250000000000000000, 0.0000000000000000000, 0.0000000000000000000 ) ) ;
#137 = CARTESIAN_POINT ( 'NONE',  ( 0.1250000000000000000, 1.530808498934191500E-017, 0.0000000000000000000 ) ) ;
#138 = CARTESIAN_POINT ( 'NONE',  ( -0.1250000000000000000, 0.0000000000000000000, 0.1250000000000000000 ) ) ;
#139 = VERTEX_POINT ( 'NONE', #137 ) ;
#140 = ORIENTED_EDGE ( 'NONE', *, *, #206, .F. ) ;
#141 = ORIENTED_EDGE ( 'NONE', *, *, #207, .T. ) ;
#142 = ORIENTED_EDGE ( 'NONE', *, *, #205, .F. ) ;
#143 = ORIENTED_EDGE ( 'NONE', *, *, #204, .T. ) ;
#144 = VERTEX_POINT ( 'NONE', #136 ) ;
#145 = VERTEX_POINT ( 'NONE', #135 ) ;
#146 = VERTEX_POINT ( 'NONE', #134 ) ;
#147 = VERTEX_POINT ( 'NONE', #133 ) ;
#148 = VERTEX_POINT ( 'NONE', #132 ) ;
#149 = VERTEX_POINT ( 'NONE', #131 ) ;
#150 = ORIENTED_EDGE ( 'NONE', *, *, #206, .T. ) ;
#151 = ORIENTED_EDGE ( 'NONE', *, *, #209, .F. ) ;
#152 = ORIENTED_EDGE ( 'NONE', *, *, #181, .T. ) ;
#153 = ORIENTED_EDGE ( 'NONE', *, *, #186, .F. ) ;
#154 = ORIENTED_EDGE ( 'NONE', *, *, #210, .T. ) ;
#155 = ORIENTED_EDGE ( 'NONE', *, *, #209, .T. ) ;
#156 = ORIENTED_EDGE ( 'NONE', *, *, #185, .F. ) ;
#157 = ORIENTED_EDGE ( 'NONE', *, *, #182, .F. ) ;
#158 = ORIENTED_EDGE ( 'NONE', *, *, #208, .F. ) ;
#159 = ORIENTED_EDGE ( 'NONE', *, *, #210, .F. ) ;
#160 = ORIENTED_EDGE ( 'NONE', *, *, #183, .T. ) ;
#161 = ORIENTED_EDGE ( 'NONE', *, *, #204, .F. ) ;
#162 = ORIENTED_EDGE ( 'NONE', *, *, #181, .F. ) ;
#163 = ORIENTED_EDGE ( 'NONE', *, *, #207, .F. ) ;
#164 = ORIENTED_EDGE ( 'NONE', *, *, #205, .T. ) ;
#165 = ORIENTED_EDGE ( 'NONE', *, *, #208, .T. ) ;
#166 = ORIENTED_EDGE ( 'NONE', *, *, #183, .F. ) ;
#167 = ORIENTED_EDGE ( 'NONE', *, *, #186, .T. ) ;
#168 = ORIENTED_EDGE ( 'NONE', *, *, #185, .T. ) ;
#169 = ORIENTED_EDGE ( 'NONE', *, *, #182, .T. ) ;
#170 = EDGE_LOOP ( 'NONE', ( #159, #156 ) ) ;
#171 =( GEOMETRIC_REPRESENTATION_CONTEXT ( 3 ) GLOBAL_UNCERTAINTY_ASSIGNED_CONTEXT ( ( #4 ) ) GLOBAL_UNIT_ASSIGNED_CONTEXT ( ( #46, #47, #44 ) ) REPRESENTATION_CONTEXT ( 'NONE', 'WORKASPACE' ) );
#172 =( GEOMETRIC_REPRESENTATION_CONTEXT ( 3 ) GLOBAL_UNCERTAINTY_ASSIGNED_CONTEXT ( ( #1 ) ) GLOBAL_UNIT_ASSIGNED_CONTEXT ( ( #56, #55, #54 ) ) REPRESENTATION_CONTEXT ( 'NONE', 'WORKASPACE' ) );
#173 =( GEOMETRIC_REPRESENTATION_CONTEXT ( 3 ) GLOBAL_UNCERTAINTY_ASSIGNED_CONTEXT ( ( #3 ) ) GLOBAL_UNIT_ASSIGNED_CONTEXT ( ( #123, #122, #121 ) ) REPRESENTATION_CONTEXT ( 'NONE', 'WORKASPACE' ) );
#174 = DIMENSIONAL_EXPONENTS ( 1.000000000000000000, 0.0000000000000000000, 0.0000000000000000000, 0.0000000000000000000, 0.0000000000000000000, 0.0000000000000000000, 0.0000000000000000000 ) ;
#175 = DIMENSIONAL_EXPONENTS ( 1.000000000000000000, 0.0000000000000000000, 0.0000000000000000000, 0.0000000000000000000, 0.0000000000000000000, 0.0000000000000000000, 0.0000000000000000000 ) ;
#176 = PRODUCT ( 'DH125B-063', 'DH125B-063', '', ( #36 ) ) ;
#177 = DIMENSIONAL_EXPONENTS ( 1.000000000000000000, 0.0000000000000000000, 0.0000000000000000000, 0.0000000000000000000, 0.0000000000000000000, 0.0000000000000000000, 0.0000000000000000000 ) ;
#178 = MANIFOLD_SOLID_BREP ( 'Boss-Extrude1', #220 ) ;
#179 = PRODUCT_DEFINITION_CONTEXT ( 'detailed design', #212, 'design' ) ;
#180 = PRODUCT_DEFINITION_SHAPE ( 'NONE', 'NONE',  #184 ) ;
#181 = EDGE_CURVE ( 'NONE', #64, #144, #119, .T. ) ;
#182 = EDGE_CURVE ( 'NONE', #147, #139, #118, .T. ) ;
#183 = EDGE_CURVE ( 'NONE', #147, #64, #193, .T. ) ;
#184 = PRODUCT_DEFINITION ( 'UNKNOWN', '', #213, #179 ) ;
#185 = EDGE_CURVE ( 'NONE', #139, #144, #194, .T. ) ;
#186 = EDGE_CURVE ( 'NONE', #64, #147, #197, .T. ) ;
#187 = PRODUCT_RELATED_PRODUCT_CATEGORY ( 'part', '', ( #176 ) ) ;
#188 = COLOUR_RGB ( '',0.5686274509803921400, 0.5686274509803921400, 0.5882352941176470800 ) ;
#189 = CIRCLE ( 'NONE', #21, 0.1250000000000000000 ) ;
#190 = CIRCLE ( 'NONE', #20, 0.03125000000000001400 ) ;
#191 = CIRCLE ( 'NONE', #22, 0.03125000000000001400 ) ;
#192 = COLOUR_RGB ( '',0.5686274509803921400, 0.5686274509803921400, 0.5882352941176470800 ) ;
#193 = CIRCLE ( 'NONE', #214, 0.1250000000000000000 ) ;
#194 = CIRCLE ( 'NONE', #27, 0.1250000000000000000 ) ;
#195 = CIRCLE ( 'NONE', #25, 0.03125000000000001400 ) ;
#196 = CIRCLE ( 'NONE', #30, 0.03125000000000001400 ) ;
#197 = CIRCLE ( 'NONE', #215, 0.1250000000000000000 ) ;
#198 = ADVANCED_FACE ( 'NONE', ( #222 ), #5, .F. ) ;
#199 = ADVANCED_FACE ( 'NONE', ( #28 ), #9, .T. ) ;
#200 = ADVANCED_FACE ( 'NONE', ( #6 ), #12, .F. ) ;
#201 = ADVANCED_FACE ( 'NONE', ( #10 ), #15, .T. ) ;
#202 = ADVANCED_FACE ( 'NONE', ( #13, #17 ), #90, .T. ) ;
#203 = ADVANCED_FACE ( 'NONE', ( #18, #16 ), #86, .F. ) ;
#204 = EDGE_CURVE ( 'NONE', #146, #145, #82, .T. ) ;
#205 = EDGE_CURVE ( 'NONE', #149, #148, #78, .T. ) ;
#206 = EDGE_CURVE ( 'NONE', #148, #145, #195, .T. ) ;
#207 = EDGE_CURVE ( 'NONE', #149, #146, #196, .T. ) ;
#208 = EDGE_CURVE ( 'NONE', #146, #149, #191, .T. ) ;
#209 = EDGE_CURVE ( 'NONE', #145, #148, #190, .T. ) ;
#210 = EDGE_CURVE ( 'NONE', #144, #139, #189, .T. ) ;
#211 = APPLICATION_CONTEXT ( 'automotive_design' ) ;
#212 = APPLICATION_CONTEXT ( 'automotive_design' ) ;
#213 = PRODUCT_DEFINITION_FORMATION_WITH_SPECIFIED_SOURCE ( 'ANY', '', #176, .NOT_KNOWN. ) ;
#214 = AXIS2_PLACEMENT_3D ( 'NONE', #117, #110, #109 ) ;
#215 = AXIS2_PLACEMENT_3D ( 'NONE', #105, #104, #103 ) ;
#216 = VECTOR ( 'NONE', #111, 39.37007874015748100 ) ;
#217 = MECHANICAL_DESIGN_GEOMETRIC_PRESENTATION_REPRESENTATION (  '', ( #219 ), #173 ) ;
#218 = PRESENTATION_LAYER_ASSIGNMENT (  '', '', ( #219 ) ) ;
#219 = STYLED_ITEM ( 'NONE', ( #125 ), #178 ) ;
#220 = CLOSED_SHELL ( 'NONE', ( #200, #201, #202, #203, #199, #198 ) ) ;
#221 = LENGTH_MEASURE_WITH_UNIT ( LENGTH_MEASURE( 0.02539999999999999900 ), #124 );
#222 = FACE_OUTER_BOUND ( 'NONE', #115, .T. ) ;
#223 = VECTOR ( 'NONE', #116, 39.37007874015748100 ) ;
ENDSEC;
END-ISO-10303-21;
