ISO-10303-21;
HEADER;
FILE_DESCRIPTION (( 'STEP AP214' ),
    '1' );
FILE_NAME ('DH125D-FN.step',
    '2012-04-20T20:56:59',
    ( '' ),
    ( '' ),
    'SwSTEP 2.0',
    'SolidWorks 2012',
    '' );
FILE_SCHEMA (( 'AUTOMOTIVE_DESIGN' ));
ENDSEC;

DATA;
#1 = DIRECTION ( 'NONE',  ( 0.0000000000000000000, 0.0000000000000000000, 1.000000000000000000 ) ) ;
#2 = APPLICATION_PROTOCOL_DEFINITION ( 'draft international standard', 'automotive_design', 1998, #214 ) ;
#3 = PRODUCT_CONTEXT ( 'NONE', #213, 'mechanical' ) ;
#4 = SHAPE_DEFINITION_REPRESENTATION ( #206, #210 ) ;
#5 = DIRECTION ( 'NONE',  ( 1.000000000000000000, 0.0000000000000000000, 0.0000000000000000000 ) ) ;
#6 = DIRECTION ( 'NONE',  ( 0.0000000000000000000, 0.0000000000000000000, 1.000000000000000000 ) ) ;
#7 = CARTESIAN_POINT ( 'NONE',  ( 0.0000000000000000000, 0.0000000000000000000, 0.0000000000000000000 ) ) ;
#8 =( NAMED_UNIT ( * ) SI_UNIT ( $, .STERADIAN. ) SOLID_ANGLE_UNIT ( ) );
#9 =( NAMED_UNIT ( * ) PLANE_ANGLE_UNIT ( ) SI_UNIT ( $, .RADIAN. ) );
#10 =( CONVERSION_BASED_UNIT ( 'INCH', #68 ) LENGTH_UNIT ( ) NAMED_UNIT ( #205 ) );
#11 =( LENGTH_UNIT ( ) NAMED_UNIT ( * ) SI_UNIT ( $, .METRE. ) );
#12 = PRESENTATION_STYLE_ASSIGNMENT (( #13 ) ) ;
#13 = SURFACE_STYLE_USAGE ( .BOTH. , #14 ) ;
#14 = SURFACE_SIDE_STYLE ('',( #15 ) ) ;
#15 = SURFACE_STYLE_FILL_AREA ( #16 ) ;
#16 = FILL_AREA_STYLE ('',( #17 ) ) ;
#17 = FILL_AREA_STYLE_COLOUR ( '', #224 ) ;
#18 =( NAMED_UNIT ( * ) PLANE_ANGLE_UNIT ( ) SI_UNIT ( $, .RADIAN. ) );
#19 =( NAMED_UNIT ( * ) SI_UNIT ( $, .STERADIAN. ) SOLID_ANGLE_UNIT ( ) );
#20 =( CONVERSION_BASED_UNIT ( 'INCH', #72 ) LENGTH_UNIT ( ) NAMED_UNIT ( #203 ) );
#21 =( LENGTH_UNIT ( ) NAMED_UNIT ( * ) SI_UNIT ( $, .METRE. ) );
#22 = DIRECTION ( 'NONE',  ( 0.0000000000000000000, 1.000000000000000000, 0.0000000000000000000 ) ) ;
#23 = CARTESIAN_POINT ( 'NONE',  ( 0.0000000000000000000, 0.1250000000000000000, 0.0000000000000000000 ) ) ;
#24 = PLANE ( 'NONE',  #80 ) ;
#25 = DIRECTION ( 'NONE',  ( 0.0000000000000000000, 0.0000000000000000000, -1.000000000000000000 ) ) ;
#26 = DIRECTION ( 'NONE',  ( 0.0000000000000000000, 0.0000000000000000000, -1.000000000000000000 ) ) ;
#27 = DIRECTION ( 'NONE',  ( -0.0000000000000000000, -1.000000000000000000, -0.0000000000000000000 ) ) ;
#28 = DIRECTION ( 'NONE',  ( 8.029845638358707400E-017, 0.7550331183926466400, -0.6556866554462396100 ) ) ;
#29 = DIRECTION ( 'NONE',  ( 0.0000000000000000000, 0.0000000000000000000, 1.000000000000000000 ) ) ;
#30 = DIRECTION ( 'NONE',  ( 0.0000000000000000000, 0.0000000000000000000, -1.000000000000000000 ) ) ;
#31 = DIRECTION ( 'NONE',  ( -0.0000000000000000000, -1.000000000000000000, -0.0000000000000000000 ) ) ;
#32 = CARTESIAN_POINT ( 'NONE',  ( 0.0000000000000000000, 0.0000000000000000000, 0.0000000000000000000 ) ) ;
#33 = CARTESIAN_POINT ( 'NONE',  ( 0.0000000000000000000, 0.0000000000000000000, 0.0000000000000000000 ) ) ;
#34 = CARTESIAN_POINT ( 'NONE',  ( 0.0000000000000000000, 0.0000000000000000000, 0.0000000000000000000 ) ) ;
#35 = DIRECTION ( 'NONE',  ( -0.0000000000000000000, -1.000000000000000000, -0.0000000000000000000 ) ) ;
#36 = DIRECTION ( 'NONE',  ( -0.0000000000000000000, -1.000000000000000000, -0.0000000000000000000 ) ) ;
#37 = DIRECTION ( 'NONE',  ( 0.0000000000000000000, 0.0000000000000000000, -1.000000000000000000 ) ) ;
#38 = LINE ( 'NONE', #40, #71 ) ;
#39 = APPLICATION_PROTOCOL_DEFINITION ( 'draft international standard', 'automotive_design', 1998, #213 ) ;
#40 = CARTESIAN_POINT ( 'NONE',  ( 1.836970198721020500E-017, 0.1250000000000000000, -0.1499999999999992200 ) ) ;
#41 = CARTESIAN_POINT ( 'NONE',  ( 0.0000000000000000000, 0.0000000000000000000, -0.2500000000000000000 ) ) ;
#42 = LINE ( 'NONE', #41, #73 ) ;
#43 = CARTESIAN_POINT ( 'NONE',  ( 0.0000000000000000000, 0.1250000000000000000, 0.0000000000000000000 ) ) ;
#44 = DIRECTION ( 'NONE',  ( -0.0000000000000000000, -1.000000000000000000, -0.0000000000000000000 ) ) ;
#45 = CARTESIAN_POINT ( 'NONE',  ( 8.266365894244634300E-018, 0.0000000000000000000, 0.06749999999999999100 ) ) ;
#46 = DIRECTION ( 'NONE',  ( -0.0000000000000000000, -1.000000000000000000, -0.0000000000000000000 ) ) ;
#47 = CARTESIAN_POINT ( 'NONE',  ( 0.0000000000000000000, 0.0000000000000000000, 0.0000000000000000000 ) ) ;
#48 = DIRECTION ( 'NONE',  ( 0.0000000000000000000, 0.0000000000000000000, -1.000000000000000000 ) ) ;
#49 = LINE ( 'NONE', #45, #75 ) ;
#50 = DIRECTION ( 'NONE',  ( -0.0000000000000000000, -1.000000000000000000, -0.0000000000000000000 ) ) ;
#51 = DIRECTION ( 'NONE',  ( -0.0000000000000000000, -1.000000000000000000, -0.0000000000000000000 ) ) ;
#52 = DIRECTION ( 'NONE',  ( 0.0000000000000000000, 0.0000000000000000000, -1.000000000000000000 ) ) ;
#53 = CARTESIAN_POINT ( 'NONE',  ( 0.0000000000000000000, 0.03000000000000000600, 0.0000000000000000000 ) ) ;
#54 = CARTESIAN_POINT ( 'NONE',  ( 0.0000000000000000000, 0.0000000000000000000, -0.06749999999999999100 ) ) ;
#55 = DIRECTION ( 'NONE',  ( 0.0000000000000000000, 1.000000000000000000, 0.0000000000000000000 ) ) ;
#56 = DIRECTION ( 'NONE',  ( -0.0000000000000000000, -1.000000000000000000, -0.0000000000000000000 ) ) ;
#57 = CARTESIAN_POINT ( 'NONE',  ( 0.0000000000000000000, 0.1250000000000000000, 0.0000000000000000000 ) ) ;
#58 = DIRECTION ( 'NONE',  ( 0.0000000000000000000, 0.0000000000000000000, -1.000000000000000000 ) ) ;
#59 = DIRECTION ( 'NONE',  ( 0.0000000000000000000, -1.000000000000000000, -0.0000000000000000000 ) ) ;
#60 = LINE ( 'NONE', #54, #78 ) ;
#61 = AXIS2_PLACEMENT_3D ( 'NONE', #108, #104, #103 ) ;
#62 = FACE_OUTER_BOUND ( 'NONE', #194, .T. ) ;
#63 = PRODUCT_DEFINITION_FORMATION_WITH_SPECIFIED_SOURCE ( 'ANY', '', #204, .NOT_KNOWN. ) ;
#64 = AXIS2_PLACEMENT_3D ( 'NONE', #101, #100, #99 ) ;
#65 = VECTOR ( 'NONE', #105, 39.37007874015748100 ) ;
#66 = MECHANICAL_DESIGN_GEOMETRIC_PRESENTATION_REPRESENTATION (  '', ( #69 ), #256 ) ;
#67 = AXIS2_PLACEMENT_3D ( 'NONE', #7, #6, #5 ) ;
#68 = LENGTH_MEASURE_WITH_UNIT ( LENGTH_MEASURE( 0.02539999999999999900 ), #11 );
#69 = STYLED_ITEM ( 'NONE', ( #12 ), #210 ) ;
#70 = PRESENTATION_LAYER_ASSIGNMENT (  '', '', ( #69 ) ) ;
#71 = VECTOR ( 'NONE', #28, 39.37007874015748100 ) ;
#72 = LENGTH_MEASURE_WITH_UNIT ( LENGTH_MEASURE( 0.02539999999999999900 ), #21 );
#73 = VECTOR ( 'NONE', #36, 39.37007874015748100 ) ;
#74 = AXIS2_PLACEMENT_3D ( 'NONE', #43, #35, #30 ) ;
#75 = VECTOR ( 'NONE', #44, 39.37007874015748100 ) ;
#76 = AXIS2_PLACEMENT_3D ( 'NONE', #33, #31, #37 ) ;
#77 = AXIS2_PLACEMENT_3D ( 'NONE', #53, #46, #48 ) ;
#78 = VECTOR ( 'NONE', #56, 39.37007874015748100 ) ;
#79 = AXIS2_PLACEMENT_3D ( 'NONE', #57, #55, #1 ) ;
#80 = AXIS2_PLACEMENT_3D ( 'NONE', #23, #59, #58 ) ;
#81 = AXIS2_PLACEMENT_3D ( 'NONE', #98, #97, #96 ) ;
#82 = AXIS2_PLACEMENT_3D ( 'NONE', #34, #51, #52 ) ;
#83 = AXIS2_PLACEMENT_3D ( 'NONE', #32, #27, #26 ) ;
#84 = FACE_BOUND ( 'NONE', #195, .T. ) ;
#85 = AXIS2_PLACEMENT_3D ( 'NONE', #47, #50, #25 ) ;
#86 = AXIS2_PLACEMENT_3D ( 'NONE', #95, #22, #29 ) ;
#87 = CYLINDRICAL_SURFACE ( 'NONE', #81, 0.2500000000000000000 ) ;
#88 = FACE_OUTER_BOUND ( 'NONE', #199, .T. ) ;
#89 = FACE_OUTER_BOUND ( 'NONE', #193, .T. ) ;
#90 = CYLINDRICAL_SURFACE ( 'NONE', #85, 0.06749999999999999100 ) ;
#91 = FACE_OUTER_BOUND ( 'NONE', #192, .T. ) ;
#92 = FACE_OUTER_BOUND ( 'NONE', #201, .T. ) ;
#93 = FACE_OUTER_BOUND ( 'NONE', #197, .T. ) ;
#94 = FACE_BOUND ( 'NONE', #200, .T. ) ;
#95 = CARTESIAN_POINT ( 'NONE',  ( 0.0000000000000000000, 0.1250000000000000000, 0.0000000000000000000 ) ) ;
#96 = DIRECTION ( 'NONE',  ( 0.0000000000000000000, 0.0000000000000000000, -1.000000000000000000 ) ) ;
#97 = DIRECTION ( 'NONE',  ( -0.0000000000000000000, -1.000000000000000000, -0.0000000000000000000 ) ) ;
#98 = CARTESIAN_POINT ( 'NONE',  ( 0.0000000000000000000, 0.0000000000000000000, 0.0000000000000000000 ) ) ;
#99 = DIRECTION ( 'NONE',  ( 0.0000000000000000000, 0.0000000000000000000, -1.000000000000000000 ) ) ;
#100 = DIRECTION ( 'NONE',  ( 0.0000000000000000000, -1.000000000000000000, -0.0000000000000000000 ) ) ;
#101 = CARTESIAN_POINT ( 'NONE',  ( 0.0000000000000000000, 0.0000000000000000000, 0.0000000000000000000 ) ) ;
#102 = PLANE ( 'NONE',  #64 ) ;
#103 = DIRECTION ( 'NONE',  ( 0.0000000000000000000, 0.0000000000000000000, -1.000000000000000000 ) ) ;
#104 = DIRECTION ( 'NONE',  ( -0.0000000000000000000, -1.000000000000000000, -0.0000000000000000000 ) ) ;
#105 = DIRECTION ( 'NONE',  ( -0.0000000000000000000, -1.000000000000000000, -0.0000000000000000000 ) ) ;
#106 = CARTESIAN_POINT ( 'NONE',  ( 3.061616997868383000E-017, 0.0000000000000000000, 0.2500000000000000000 ) ) ;
#107 = LINE ( 'NONE', #106, #65 ) ;
#108 = CARTESIAN_POINT ( 'NONE',  ( 0.0000000000000000000, 0.1250000000000000000, 0.0000000000000000000 ) ) ;
#109 = DIRECTION ( 'NONE',  ( 0.0000000000000000000, 0.0000000000000000000, -1.000000000000000000 ) ) ;
#110 = DIRECTION ( 'NONE',  ( -0.0000000000000000000, -1.000000000000000000, -0.0000000000000000000 ) ) ;
#111 = CARTESIAN_POINT ( 'NONE',  ( 0.0000000000000000000, 0.0000000000000000000, 0.0000000000000000000 ) ) ;
#112 = DIRECTION ( 'NONE',  ( 0.0000000000000000000, 0.0000000000000000000, -1.000000000000000000 ) ) ;
#113 = DIRECTION ( 'NONE',  ( -0.0000000000000000000, -1.000000000000000000, -0.0000000000000000000 ) ) ;
#114 = CARTESIAN_POINT ( 'NONE',  ( 0.0000000000000000000, 0.0000000000000000000, 0.0000000000000000000 ) ) ;
#115 = DIRECTION ( 'NONE',  ( 0.0000000000000000000, 0.0000000000000000000, -1.000000000000000000 ) ) ;
#116 = DIRECTION ( 'NONE',  ( -0.0000000000000000000, -1.000000000000000000, -0.0000000000000000000 ) ) ;
#117 = CARTESIAN_POINT ( 'NONE',  ( 0.0000000000000000000, 0.1250000000000000000, 0.0000000000000000000 ) ) ;
#118 = DIRECTION ( 'NONE',  ( 0.0000000000000000000, 0.0000000000000000000, -1.000000000000000000 ) ) ;
#119 = DIRECTION ( 'NONE',  ( -0.0000000000000000000, -1.000000000000000000, -0.0000000000000000000 ) ) ;
#120 = CARTESIAN_POINT ( 'NONE',  ( 0.0000000000000000000, 0.1250000000000000000, 0.0000000000000000000 ) ) ;
#121 = DIRECTION ( 'NONE',  ( 0.0000000000000000000, 0.0000000000000000000, -1.000000000000000000 ) ) ;
#122 = DIRECTION ( 'NONE',  ( -0.0000000000000000000, -1.000000000000000000, -0.0000000000000000000 ) ) ;
#123 = CARTESIAN_POINT ( 'NONE',  ( 0.0000000000000000000, 0.03000000000000000600, 0.0000000000000000000 ) ) ;
#124 = DIRECTION ( 'NONE',  ( 0.0000000000000000000, 0.0000000000000000000, -1.000000000000000000 ) ) ;
#125 = DIRECTION ( 'NONE',  ( -0.0000000000000000000, -1.000000000000000000, -0.0000000000000000000 ) ) ;
#126 = CARTESIAN_POINT ( 'NONE',  ( 0.0000000000000000000, 0.0000000000000000000, 0.0000000000000000000 ) ) ;
#127 = DIRECTION ( 'NONE',  ( 0.0000000000000000000, 0.7550331183926466400, 0.6556866554462396100 ) ) ;
#128 = CARTESIAN_POINT ( 'NONE',  ( 0.0000000000000000000, 0.1250000000000000000, 0.1499999999999992200 ) ) ;
#129 = LINE ( 'NONE', #128, #268 ) ;
#130 =( NAMED_UNIT ( * ) SI_UNIT ( $, .STERADIAN. ) SOLID_ANGLE_UNIT ( ) );
#131 =( NAMED_UNIT ( * ) PLANE_ANGLE_UNIT ( ) SI_UNIT ( $, .RADIAN. ) );
#132 =( CONVERSION_BASED_UNIT ( 'INCH', #267 ) LENGTH_UNIT ( ) NAMED_UNIT ( #202 ) );
#133 =( LENGTH_UNIT ( ) NAMED_UNIT ( * ) SI_UNIT ( $, .METRE. ) );
#134 = PRESENTATION_STYLE_ASSIGNMENT (( #135 ) ) ;
#135 = SURFACE_STYLE_USAGE ( .BOTH. , #136 ) ;
#136 = SURFACE_SIDE_STYLE ('',( #137 ) ) ;
#137 = SURFACE_STYLE_FILL_AREA ( #138 ) ;
#138 = FILL_AREA_STYLE ('',( #139 ) ) ;
#139 = FILL_AREA_STYLE_COLOUR ( '', #220 ) ;
#140 = CARTESIAN_POINT ( 'NONE',  ( 0.0000000000000000000, 0.1250000000000000000, -0.2500000000000000000 ) ) ;
#141 = CARTESIAN_POINT ( 'NONE',  ( 3.061616997868383000E-017, 0.1250000000000000000, 0.2500000000000000000 ) ) ;
#142 = CARTESIAN_POINT ( 'NONE',  ( 3.061616997868383000E-017, 0.0000000000000000000, 0.2500000000000000000 ) ) ;
#143 = CARTESIAN_POINT ( 'NONE',  ( 0.0000000000000000000, 0.0000000000000000000, -0.2500000000000000000 ) ) ;
#144 = CARTESIAN_POINT ( 'NONE',  ( 0.0000000000000000000, 0.03000000000000000600, 0.06749999999999999100 ) ) ;
#145 = CARTESIAN_POINT ( 'NONE',  ( 0.0000000000000000000, 0.0000000000000000000, -0.06749999999999999100 ) ) ;
#146 = ORIENTED_EDGE ( 'NONE', *, *, #244, .F. ) ;
#147 = CARTESIAN_POINT ( 'NONE',  ( 1.331803394072741700E-017, 0.03000000000000000600, -0.06749999999999999100 ) ) ;
#148 = CARTESIAN_POINT ( 'NONE',  ( 8.266365894244634300E-018, 0.0000000000000000000, 0.06749999999999999100 ) ) ;
#149 = CARTESIAN_POINT ( 'NONE',  ( 0.0000000000000000000, 0.1250000000000000000, 0.1499999999999992200 ) ) ;
#150 = CARTESIAN_POINT ( 'NONE',  ( 1.836970198721020500E-017, 0.1250000000000000000, -0.1499999999999992200 ) ) ;
#151 = ORIENTED_EDGE ( 'NONE', *, *, #246, .T. ) ;
#152 = ORIENTED_EDGE ( 'NONE', *, *, #247, .T. ) ;
#153 = ORIENTED_EDGE ( 'NONE', *, *, #245, .T. ) ;
#154 = ORIENTED_EDGE ( 'NONE', *, *, #252, .F. ) ;
#155 = ORIENTED_EDGE ( 'NONE', *, *, #223, .F. ) ;
#156 = ORIENTED_EDGE ( 'NONE', *, *, #247, .F. ) ;
#157 = ORIENTED_EDGE ( 'NONE', *, *, #217, .F. ) ;
#158 = ORIENTED_EDGE ( 'NONE', *, *, #249, .T. ) ;
#159 = ORIENTED_EDGE ( 'NONE', *, *, #229, .F. ) ;
#160 = ORIENTED_EDGE ( 'NONE', *, *, #223, .T. ) ;
#161 = ORIENTED_EDGE ( 'NONE', *, *, #249, .F. ) ;
#162 = ORIENTED_EDGE ( 'NONE', *, *, #250, .T. ) ;
#163 = ORIENTED_EDGE ( 'NONE', *, *, #218, .F. ) ;
#164 = ORIENTED_EDGE ( 'NONE', *, *, #222, .T. ) ;
#165 = ORIENTED_EDGE ( 'NONE', *, *, #217, .T. ) ;
#166 = ORIENTED_EDGE ( 'NONE', *, *, #250, .F. ) ;
#167 = ORIENTED_EDGE ( 'NONE', *, *, #245, .F. ) ;
#168 = ORIENTED_EDGE ( 'NONE', *, *, #229, .T. ) ;
#169 = ORIENTED_EDGE ( 'NONE', *, *, #219, .F. ) ;
#170 = ORIENTED_EDGE ( 'NONE', *, *, #244, .T. ) ;
#171 = ORIENTED_EDGE ( 'NONE', *, *, #251, .F. ) ;
#172 = ORIENTED_EDGE ( 'NONE', *, *, #222, .F. ) ;
#173 = ORIENTED_EDGE ( 'NONE', *, *, #248, .T. ) ;
#174 = ORIENTED_EDGE ( 'NONE', *, *, #218, .T. ) ;
#175 = ORIENTED_EDGE ( 'NONE', *, *, #251, .T. ) ;
#176 = ORIENTED_EDGE ( 'NONE', *, *, #219, .T. ) ;
#177 = ORIENTED_EDGE ( 'NONE', *, *, #215, .T. ) ;
#178 = ORIENTED_EDGE ( 'NONE', *, *, #252, .T. ) ;
#179 = ORIENTED_EDGE ( 'NONE', *, *, #248, .F. ) ;
#180 = ORIENTED_EDGE ( 'NONE', *, *, #215, .F. ) ;
#181 = ORIENTED_EDGE ( 'NONE', *, *, #246, .F. ) ;
#182 = VERTEX_POINT ( 'NONE', #149 ) ;
#183 = VERTEX_POINT ( 'NONE', #150 ) ;
#184 = VERTEX_POINT ( 'NONE', #145 ) ;
#185 = VERTEX_POINT ( 'NONE', #148 ) ;
#186 = VERTEX_POINT ( 'NONE', #147 ) ;
#187 = VERTEX_POINT ( 'NONE', #144 ) ;
#188 = VERTEX_POINT ( 'NONE', #143 ) ;
#189 = VERTEX_POINT ( 'NONE', #142 ) ;
#190 = VERTEX_POINT ( 'NONE', #141 ) ;
#191 = VERTEX_POINT ( 'NONE', #140 ) ;
#192 = EDGE_LOOP ( 'NONE', ( #155, #174, #173, #166 ) ) ;
#193 = EDGE_LOOP ( 'NONE', ( #181, #157, #170, #178 ) ) ;
#194 = EDGE_LOOP ( 'NONE', ( #164, #162 ) ) ;
#195 = EDGE_LOOP ( 'NONE', ( #154, #167 ) ) ;
#196 = EDGE_LOOP ( 'NONE', ( #156, #151, #153, #146 ) ) ;
#197 = EDGE_LOOP ( 'NONE', ( #152, #175, #161, #180 ) ) ;
#198 = EDGE_LOOP ( 'NONE', ( #176, #160, #172, #179 ) ) ;
#199 = EDGE_LOOP ( 'NONE', ( #169, #163 ) ) ;
#200 = EDGE_LOOP ( 'NONE', ( #158, #168 ) ) ;
#201 = EDGE_LOOP ( 'NONE', ( #171, #165, #177, #159 ) ) ;
#202 = DIMENSIONAL_EXPONENTS ( 1.000000000000000000, 0.0000000000000000000, 0.0000000000000000000, 0.0000000000000000000, 0.0000000000000000000, 0.0000000000000000000, 0.0000000000000000000 ) ;
#203 = DIMENSIONAL_EXPONENTS ( 1.000000000000000000, 0.0000000000000000000, 0.0000000000000000000, 0.0000000000000000000, 0.0000000000000000000, 0.0000000000000000000, 0.0000000000000000000 ) ;
#204 = PRODUCT ( 'DH125D-FN', 'DH125D-FN', '', ( #3 ) ) ;
#205 = DIMENSIONAL_EXPONENTS ( 1.000000000000000000, 0.0000000000000000000, 0.0000000000000000000, 0.0000000000000000000, 0.0000000000000000000, 0.0000000000000000000, 0.0000000000000000000 ) ;
#206 = PRODUCT_DEFINITION_SHAPE ( 'NONE', 'NONE',  #253 ) ;
#207 = PRODUCT_DEFINITION_CONTEXT ( 'detailed design', #214, 'design' ) ;
#208 = MANIFOLD_SOLID_BREP ( 'Revolve1', #272 ) ;
#209 = UNCERTAINTY_MEASURE_WITH_UNIT (LENGTH_MEASURE( 1.000000000000000100E-005 ), #20, 'distance_accuracy_value', 'NONE');
#210 = ADVANCED_BREP_SHAPE_REPRESENTATION ( 'DH125D-FN', ( #208, #67 ), #255 ) ;
#211 = UNCERTAINTY_MEASURE_WITH_UNIT (LENGTH_MEASURE( 1.000000000000000100E-005 ), #132, 'distance_accuracy_value', 'NONE');
#212 = UNCERTAINTY_MEASURE_WITH_UNIT (LENGTH_MEASURE( 1.000000000000000100E-005 ), #10, 'distance_accuracy_value', 'NONE');
#213 = APPLICATION_CONTEXT ( 'automotive_design' ) ;
#214 = APPLICATION_CONTEXT ( 'automotive_design' ) ;
#215 = EDGE_CURVE ( 'NONE', #187, #182, #129, .T. ) ;
#216 = ADVANCED_FACE ( 'NONE', ( #266 ), #269, .F. ) ;
#217 = EDGE_CURVE ( 'NONE', #186, #187, #234, .T. ) ;
#218 = EDGE_CURVE ( 'NONE', #190, #191, #237, .T. ) ;
#219 = EDGE_CURVE ( 'NONE', #191, #190, #235, .T. ) ;
#220 = COLOUR_RGB ( '',0.5686274509803921400, 0.5686274509803921400, 0.5882352941176470800 ) ;
#221 = ADVANCED_FACE ( 'NONE', ( #261 ), #260, .T. ) ;
#222 = EDGE_CURVE ( 'NONE', #188, #189, #233, .T. ) ;
#223 = EDGE_CURVE ( 'NONE', #190, #189, #107, .T. ) ;
#224 = COLOUR_RGB ( '',0.5686274509803921400, 0.5686274509803921400, 0.5882352941176470800 ) ;
#225 = CIRCLE ( 'NONE', #83, 0.06749999999999999100 ) ;
#226 = CIRCLE ( 'NONE', #74, 0.1499999999999992200 ) ;
#227 = CIRCLE ( 'NONE', #76, 0.2500000000000000000 ) ;
#228 = CIRCLE ( 'NONE', #77, 0.06749999999999999100 ) ;
#229 = EDGE_CURVE ( 'NONE', #183, #182, #236, .T. ) ;
#230 = CIRCLE ( 'NONE', #82, 0.06749999999999999100 ) ;
#231 = CONICAL_SURFACE ( 'NONE', #79, 0.1499999999999992200, 0.7150916992788192200 ) ;
#232 = CONICAL_SURFACE ( 'NONE', #86, 0.1499999999999992200, 0.7150916992788192200 ) ;
#233 = CIRCLE ( 'NONE', #258, 0.2500000000000000000 ) ;
#234 = CIRCLE ( 'NONE', #270, 0.06749999999999999100 ) ;
#235 = CIRCLE ( 'NONE', #259, 0.2500000000000000000 ) ;
#236 = CIRCLE ( 'NONE', #61, 0.1499999999999992200 ) ;
#237 = CIRCLE ( 'NONE', #263, 0.2500000000000000000 ) ;
#238 = ADVANCED_FACE ( 'NONE', ( #62, #84 ), #102, .T. ) ;
#239 = ADVANCED_FACE ( 'NONE', ( #91 ), #87, .T. ) ;
#240 = ADVANCED_FACE ( 'NONE', ( #92 ), #232, .F. ) ;
#241 = ADVANCED_FACE ( 'NONE', ( #89 ), #90, .F. ) ;
#242 = ADVANCED_FACE ( 'NONE', ( #88, #94 ), #24, .F. ) ;
#243 = ADVANCED_FACE ( 'NONE', ( #93 ), #231, .F. ) ;
#244 = EDGE_CURVE ( 'NONE', #186, #184, #60, .T. ) ;
#245 = EDGE_CURVE ( 'NONE', #185, #184, #230, .T. ) ;
#246 = EDGE_CURVE ( 'NONE', #187, #185, #49, .T. ) ;
#247 = EDGE_CURVE ( 'NONE', #187, #186, #228, .T. ) ;
#248 = EDGE_CURVE ( 'NONE', #191, #188, #42, .T. ) ;
#249 = EDGE_CURVE ( 'NONE', #182, #183, #226, .T. ) ;
#250 = EDGE_CURVE ( 'NONE', #189, #188, #227, .T. ) ;
#251 = EDGE_CURVE ( 'NONE', #186, #183, #38, .T. ) ;
#252 = EDGE_CURVE ( 'NONE', #184, #185, #225, .T. ) ;
#253 = PRODUCT_DEFINITION ( 'UNKNOWN', '', #63, #207 ) ;
#254 = PRODUCT_RELATED_PRODUCT_CATEGORY ( 'part', '', ( #204 ) ) ;
#255 =( GEOMETRIC_REPRESENTATION_CONTEXT ( 3 ) GLOBAL_UNCERTAINTY_ASSIGNED_CONTEXT ( ( #209 ) ) GLOBAL_UNIT_ASSIGNED_CONTEXT ( ( #20, #18, #19 ) ) REPRESENTATION_CONTEXT ( 'NONE', 'WORKASPACE' ) );
#256 =( GEOMETRIC_REPRESENTATION_CONTEXT ( 3 ) GLOBAL_UNCERTAINTY_ASSIGNED_CONTEXT ( ( #212 ) ) GLOBAL_UNIT_ASSIGNED_CONTEXT ( ( #10, #9, #8 ) ) REPRESENTATION_CONTEXT ( 'NONE', 'WORKASPACE' ) );
#257 =( GEOMETRIC_REPRESENTATION_CONTEXT ( 3 ) GLOBAL_UNCERTAINTY_ASSIGNED_CONTEXT ( ( #211 ) ) GLOBAL_UNIT_ASSIGNED_CONTEXT ( ( #132, #131, #130 ) ) REPRESENTATION_CONTEXT ( 'NONE', 'WORKASPACE' ) );
#258 = AXIS2_PLACEMENT_3D ( 'NONE', #111, #110, #109 ) ;
#259 = AXIS2_PLACEMENT_3D ( 'NONE', #117, #116, #115 ) ;
#260 = CYLINDRICAL_SURFACE ( 'NONE', #262, 0.2500000000000000000 ) ;
#261 = FACE_OUTER_BOUND ( 'NONE', #198, .T. ) ;
#262 = AXIS2_PLACEMENT_3D ( 'NONE', #114, #113, #112 ) ;
#263 = AXIS2_PLACEMENT_3D ( 'NONE', #120, #119, #118 ) ;
#264 = AXIS2_PLACEMENT_3D ( 'NONE', #126, #125, #124 ) ;
#265 = STYLED_ITEM ( 'NONE', ( #134 ), #208 ) ;
#266 = FACE_OUTER_BOUND ( 'NONE', #196, .T. ) ;
#267 = LENGTH_MEASURE_WITH_UNIT ( LENGTH_MEASURE( 0.02539999999999999900 ), #133 );
#268 = VECTOR ( 'NONE', #127, 39.37007874015748100 ) ;
#269 = CYLINDRICAL_SURFACE ( 'NONE', #264, 0.06749999999999999100 ) ;
#270 = AXIS2_PLACEMENT_3D ( 'NONE', #123, #122, #121 ) ;
#271 = MECHANICAL_DESIGN_GEOMETRIC_PRESENTATION_REPRESENTATION (  '', ( #265 ), #257 ) ;
#272 = CLOSED_SHELL ( 'NONE', ( #221, #216, #243, #242, #240, #241, #238, #239 ) ) ;
#273 = PRESENTATION_LAYER_ASSIGNMENT (  '', '', ( #265 ) ) ;
ENDSEC;
END-ISO-10303-21;
