ISO-10303-21;
HEADER;
FILE_DESCRIPTION (( 'STEP AP214' ),
    '1' );
FILE_NAME ('DH125D-FS.step',
    '2012-04-20T20:57:01',
    ( '' ),
    ( '' ),
    'SwSTEP 2.0',
    'SolidWorks 2012',
    '' );
FILE_SCHEMA (( 'AUTOMOTIVE_DESIGN' ));
ENDSEC;

DATA;
#1 = UNCERTAINTY_MEASURE_WITH_UNIT (LENGTH_MEASURE( 1.000000000000000100E-005 ), #140, 'distance_accuracy_value', 'NONE');
#2 = UNCERTAINTY_MEASURE_WITH_UNIT (LENGTH_MEASURE( 1.000000000000000100E-005 ), #15, 'distance_accuracy_value', 'NONE');
#3 = DIRECTION ( 'NONE',  ( 1.000000000000000000, 0.0000000000000000000, 0.0000000000000000000 ) ) ;
#4 = APPLICATION_PROTOCOL_DEFINITION ( 'draft international standard', 'automotive_design', 1998, #215 ) ;
#5 = APPLICATION_PROTOCOL_DEFINITION ( 'draft international standard', 'automotive_design', 1998, #216 ) ;
#6 = DIRECTION ( 'NONE',  ( 0.0000000000000000000, 0.0000000000000000000, 1.000000000000000000 ) ) ;
#7 = CARTESIAN_POINT ( 'NONE',  ( 0.0000000000000000000, 0.0000000000000000000, 0.0000000000000000000 ) ) ;
#8 = SHAPE_DEFINITION_REPRESENTATION ( #212, #261 ) ;
#9 = PRODUCT_CONTEXT ( 'NONE', #215, 'mechanical' ) ;
#10 =( NAMED_UNIT ( * ) SI_UNIT ( $, .STERADIAN. ) SOLID_ANGLE_UNIT ( ) );
#11 = CARTESIAN_POINT ( 'NONE',  ( 0.0000000000000000000, 0.0000000000000000000, 0.0000000000000000000 ) ) ;
#12 = DIRECTION ( 'NONE',  ( 0.0000000000000000000, 0.0000000000000000000, 1.000000000000000000 ) ) ;
#13 = DIRECTION ( 'NONE',  ( 0.0000000000000000000, 1.000000000000000000, 0.0000000000000000000 ) ) ;
#14 =( NAMED_UNIT ( * ) PLANE_ANGLE_UNIT ( ) SI_UNIT ( $, .RADIAN. ) );
#15 =( CONVERSION_BASED_UNIT ( 'INCH', #77 ) LENGTH_UNIT ( ) NAMED_UNIT ( #208 ) );
#16 =( LENGTH_UNIT ( ) NAMED_UNIT ( * ) SI_UNIT ( $, .METRE. ) );
#17 = PRESENTATION_STYLE_ASSIGNMENT (( #18 ) ) ;
#18 = SURFACE_STYLE_USAGE ( .BOTH. , #19 ) ;
#19 = SURFACE_SIDE_STYLE ('',( #20 ) ) ;
#20 = SURFACE_STYLE_FILL_AREA ( #21 ) ;
#21 = FILL_AREA_STYLE ('',( #22 ) ) ;
#22 = FILL_AREA_STYLE_COLOUR ( '', #229 ) ;
#23 =( NAMED_UNIT ( * ) SI_UNIT ( $, .STERADIAN. ) SOLID_ANGLE_UNIT ( ) );
#24 =( NAMED_UNIT ( * ) PLANE_ANGLE_UNIT ( ) SI_UNIT ( $, .RADIAN. ) );
#25 = PLANE ( 'NONE',  #86 ) ;
#26 =( CONVERSION_BASED_UNIT ( 'INCH', #84 ) LENGTH_UNIT ( ) NAMED_UNIT ( #210 ) );
#27 =( LENGTH_UNIT ( ) NAMED_UNIT ( * ) SI_UNIT ( $, .METRE. ) );
#28 = DIRECTION ( 'NONE',  ( -0.0000000000000000000, -1.000000000000000000, -0.0000000000000000000 ) ) ;
#29 = CARTESIAN_POINT ( 'NONE',  ( 0.0000000000000000000, 0.1250000000000000000, 0.0000000000000000000 ) ) ;
#30 = DIRECTION ( 'NONE',  ( -0.0000000000000000000, -1.000000000000000000, -0.0000000000000000000 ) ) ;
#31 = CARTESIAN_POINT ( 'NONE',  ( 3.061616997868383000E-017, 0.0000000000000000000, 0.2500000000000000000 ) ) ;
#32 = LINE ( 'NONE', #31, #73 ) ;
#33 = DIRECTION ( 'NONE',  ( 0.0000000000000000000, 0.0000000000000000000, -1.000000000000000000 ) ) ;
#34 = DIRECTION ( 'NONE',  ( -0.0000000000000000000, -1.000000000000000000, -0.0000000000000000000 ) ) ;
#35 = DIRECTION ( 'NONE',  ( 8.029845638358707400E-017, 0.7550331183926466400, -0.6556866554462396100 ) ) ;
#36 = CARTESIAN_POINT ( 'NONE',  ( 1.836970198721020500E-017, 0.1250000000000000000, -0.1499999999999992200 ) ) ;
#37 = LINE ( 'NONE', #36, #72 ) ;
#38 = DIRECTION ( 'NONE',  ( -0.0000000000000000000, -1.000000000000000000, -0.0000000000000000000 ) ) ;
#39 = CARTESIAN_POINT ( 'NONE',  ( 0.0000000000000000000, 0.0000000000000000000, -0.06749999999999999100 ) ) ;
#40 = LINE ( 'NONE', #39, #71 ) ;
#41 = CARTESIAN_POINT ( 'NONE',  ( 0.0000000000000000000, 0.1250000000000000000, 0.0000000000000000000 ) ) ;
#42 = DIRECTION ( 'NONE',  ( 0.0000000000000000000, 0.0000000000000000000, -1.000000000000000000 ) ) ;
#43 = DIRECTION ( 'NONE',  ( -0.0000000000000000000, -1.000000000000000000, -0.0000000000000000000 ) ) ;
#44 = CARTESIAN_POINT ( 'NONE',  ( 0.0000000000000000000, 0.0000000000000000000, 0.0000000000000000000 ) ) ;
#45 = DIRECTION ( 'NONE',  ( 0.0000000000000000000, 0.0000000000000000000, -1.000000000000000000 ) ) ;
#46 = DIRECTION ( 'NONE',  ( 0.0000000000000000000, 0.0000000000000000000, -1.000000000000000000 ) ) ;
#47 = DIRECTION ( 'NONE',  ( -0.0000000000000000000, -1.000000000000000000, -0.0000000000000000000 ) ) ;
#48 = DIRECTION ( 'NONE',  ( -0.0000000000000000000, -1.000000000000000000, -0.0000000000000000000 ) ) ;
#49 = CARTESIAN_POINT ( 'NONE',  ( 8.266365894244634300E-018, 0.0000000000000000000, 0.06749999999999999100 ) ) ;
#50 = LINE ( 'NONE', #49, #81 ) ;
#51 = DIRECTION ( 'NONE',  ( -0.0000000000000000000, -1.000000000000000000, -0.0000000000000000000 ) ) ;
#52 = CARTESIAN_POINT ( 'NONE',  ( 0.0000000000000000000, 0.0000000000000000000, -0.2500000000000000000 ) ) ;
#53 = LINE ( 'NONE', #52, #64 ) ;
#54 = CARTESIAN_POINT ( 'NONE',  ( 0.0000000000000000000, 0.03000000000000000600, 0.0000000000000000000 ) ) ;
#55 = DIRECTION ( 'NONE',  ( 0.0000000000000000000, 0.0000000000000000000, -1.000000000000000000 ) ) ;
#56 = DIRECTION ( 'NONE',  ( -0.0000000000000000000, -1.000000000000000000, -0.0000000000000000000 ) ) ;
#57 = CARTESIAN_POINT ( 'NONE',  ( 0.0000000000000000000, 0.0000000000000000000, 0.0000000000000000000 ) ) ;
#58 = DIRECTION ( 'NONE',  ( 0.0000000000000000000, 0.0000000000000000000, -1.000000000000000000 ) ) ;
#59 = DIRECTION ( 'NONE',  ( -0.0000000000000000000, -1.000000000000000000, -0.0000000000000000000 ) ) ;
#60 = CARTESIAN_POINT ( 'NONE',  ( 0.0000000000000000000, 0.0000000000000000000, 0.0000000000000000000 ) ) ;
#61 = DIRECTION ( 'NONE',  ( 0.0000000000000000000, 0.0000000000000000000, -1.000000000000000000 ) ) ;
#62 = DIRECTION ( 'NONE',  ( 0.0000000000000000000, -1.000000000000000000, -0.0000000000000000000 ) ) ;
#63 = CARTESIAN_POINT ( 'NONE',  ( 0.0000000000000000000, 0.0000000000000000000, 0.0000000000000000000 ) ) ;
#64 = VECTOR ( 'NONE', #51, 39.37007874015748100 ) ;
#65 = AXIS2_PLACEMENT_3D ( 'NONE', #54, #47, #45 ) ;
#66 = FACE_OUTER_BOUND ( 'NONE', #202, .T. ) ;
#67 = FACE_BOUND ( 'NONE', #137, .T. ) ;
#68 = AXIS2_PLACEMENT_3D ( 'NONE', #60, #59, #58 ) ;
#69 = CYLINDRICAL_SURFACE ( 'NONE', #70, 0.06749999999999999100 ) ;
#70 = AXIS2_PLACEMENT_3D ( 'NONE', #11, #28, #46 ) ;
#71 = VECTOR ( 'NONE', #38, 39.37007874015748100 ) ;
#72 = VECTOR ( 'NONE', #35, 39.37007874015748100 ) ;
#73 = VECTOR ( 'NONE', #30, 39.37007874015748100 ) ;
#74 = STYLED_ITEM ( 'NONE', ( #17 ), #261 ) ;
#75 = PRESENTATION_LAYER_ASSIGNMENT (  '', '', ( #74 ) ) ;
#76 = MECHANICAL_DESIGN_GEOMETRIC_PRESENTATION_REPRESENTATION (  '', ( #74 ), #257 ) ;
#77 = LENGTH_MEASURE_WITH_UNIT ( LENGTH_MEASURE( 0.02539999999999999900 ), #16 );
#78 = AXIS2_PLACEMENT_3D ( 'NONE', #29, #13, #12 ) ;
#79 = AXIS2_PLACEMENT_3D ( 'NONE', #7, #6, #3 ) ;
#80 = AXIS2_PLACEMENT_3D ( 'NONE', #104, #103, #102 ) ;
#81 = VECTOR ( 'NONE', #48, 39.37007874015748100 ) ;
#82 = AXIS2_PLACEMENT_3D ( 'NONE', #44, #43, #42 ) ;
#83 = PRODUCT_DEFINITION_FORMATION_WITH_SPECIFIED_SOURCE ( 'ANY', '', #209, .NOT_KNOWN. ) ;
#84 = LENGTH_MEASURE_WITH_UNIT ( LENGTH_MEASURE( 0.02539999999999999900 ), #27 );
#85 = AXIS2_PLACEMENT_3D ( 'NONE', #41, #34, #33 ) ;
#86 = AXIS2_PLACEMENT_3D ( 'NONE', #63, #62, #61 ) ;
#87 = FACE_OUTER_BOUND ( 'NONE', #206, .T. ) ;
#88 = FACE_BOUND ( 'NONE', #204, .T. ) ;
#89 = CYLINDRICAL_SURFACE ( 'NONE', #68, 0.2500000000000000000 ) ;
#90 = AXIS2_PLACEMENT_3D ( 'NONE', #108, #107, #106 ) ;
#91 = AXIS2_PLACEMENT_3D ( 'NONE', #57, #56, #55 ) ;
#92 = VECTOR ( 'NONE', #109, 39.37007874015748100 ) ;
#93 = FACE_OUTER_BOUND ( 'NONE', #136, .T. ) ;
#94 = FACE_OUTER_BOUND ( 'NONE', #203, .T. ) ;
#95 = AXIS2_PLACEMENT_3D ( 'NONE', #114, #113, #112 ) ;
#96 = FACE_OUTER_BOUND ( 'NONE', #207, .T. ) ;
#97 = AXIS2_PLACEMENT_3D ( 'NONE', #117, #116, #115 ) ;
#98 = FACE_OUTER_BOUND ( 'NONE', #201, .T. ) ;
#99 = CYLINDRICAL_SURFACE ( 'NONE', #95, 0.2500000000000000000 ) ;
#100 = AXIS2_PLACEMENT_3D ( 'NONE', #120, #119, #118 ) ;
#101 = FACE_OUTER_BOUND ( 'NONE', #205, .T. ) ;
#102 = DIRECTION ( 'NONE',  ( 0.0000000000000000000, 0.0000000000000000000, -1.000000000000000000 ) ) ;
#103 = DIRECTION ( 'NONE',  ( 0.0000000000000000000, -1.000000000000000000, -0.0000000000000000000 ) ) ;
#104 = CARTESIAN_POINT ( 'NONE',  ( 0.0000000000000000000, 0.1250000000000000000, 0.0000000000000000000 ) ) ;
#105 = PLANE ( 'NONE',  #80 ) ;
#106 = DIRECTION ( 'NONE',  ( 0.0000000000000000000, 0.0000000000000000000, 1.000000000000000000 ) ) ;
#107 = DIRECTION ( 'NONE',  ( 0.0000000000000000000, 1.000000000000000000, 0.0000000000000000000 ) ) ;
#108 = CARTESIAN_POINT ( 'NONE',  ( 0.0000000000000000000, 0.1250000000000000000, 0.0000000000000000000 ) ) ;
#109 = DIRECTION ( 'NONE',  ( 0.0000000000000000000, 0.7550331183926466400, 0.6556866554462396100 ) ) ;
#110 = CARTESIAN_POINT ( 'NONE',  ( 0.0000000000000000000, 0.1250000000000000000, 0.1499999999999992200 ) ) ;
#111 = LINE ( 'NONE', #110, #92 ) ;
#112 = DIRECTION ( 'NONE',  ( 0.0000000000000000000, 0.0000000000000000000, -1.000000000000000000 ) ) ;
#113 = DIRECTION ( 'NONE',  ( -0.0000000000000000000, -1.000000000000000000, -0.0000000000000000000 ) ) ;
#114 = CARTESIAN_POINT ( 'NONE',  ( 0.0000000000000000000, 0.0000000000000000000, 0.0000000000000000000 ) ) ;
#115 = DIRECTION ( 'NONE',  ( 0.0000000000000000000, 0.0000000000000000000, -1.000000000000000000 ) ) ;
#116 = DIRECTION ( 'NONE',  ( -0.0000000000000000000, -1.000000000000000000, -0.0000000000000000000 ) ) ;
#117 = CARTESIAN_POINT ( 'NONE',  ( 0.0000000000000000000, 0.1250000000000000000, 0.0000000000000000000 ) ) ;
#118 = DIRECTION ( 'NONE',  ( 0.0000000000000000000, 0.0000000000000000000, -1.000000000000000000 ) ) ;
#119 = DIRECTION ( 'NONE',  ( -0.0000000000000000000, -1.000000000000000000, -0.0000000000000000000 ) ) ;
#120 = CARTESIAN_POINT ( 'NONE',  ( 0.0000000000000000000, 0.0000000000000000000, 0.0000000000000000000 ) ) ;
#121 = DIRECTION ( 'NONE',  ( 0.0000000000000000000, 0.0000000000000000000, -1.000000000000000000 ) ) ;
#122 = DIRECTION ( 'NONE',  ( -0.0000000000000000000, -1.000000000000000000, -0.0000000000000000000 ) ) ;
#123 = CARTESIAN_POINT ( 'NONE',  ( 0.0000000000000000000, 0.0000000000000000000, 0.0000000000000000000 ) ) ;
#124 = DIRECTION ( 'NONE',  ( 0.0000000000000000000, 0.0000000000000000000, -1.000000000000000000 ) ) ;
#125 = DIRECTION ( 'NONE',  ( -0.0000000000000000000, -1.000000000000000000, -0.0000000000000000000 ) ) ;
#126 = CARTESIAN_POINT ( 'NONE',  ( 0.0000000000000000000, 0.0000000000000000000, 0.0000000000000000000 ) ) ;
#127 = DIRECTION ( 'NONE',  ( 0.0000000000000000000, 0.0000000000000000000, -1.000000000000000000 ) ) ;
#128 = DIRECTION ( 'NONE',  ( -0.0000000000000000000, -1.000000000000000000, -0.0000000000000000000 ) ) ;
#129 = CARTESIAN_POINT ( 'NONE',  ( 0.0000000000000000000, 0.03000000000000000600, 0.0000000000000000000 ) ) ;
#130 = DIRECTION ( 'NONE',  ( 0.0000000000000000000, 0.0000000000000000000, -1.000000000000000000 ) ) ;
#131 = DIRECTION ( 'NONE',  ( -0.0000000000000000000, -1.000000000000000000, -0.0000000000000000000 ) ) ;
#132 = CARTESIAN_POINT ( 'NONE',  ( 0.0000000000000000000, 0.1250000000000000000, 0.0000000000000000000 ) ) ;
#133 = DIRECTION ( 'NONE',  ( 0.0000000000000000000, 0.0000000000000000000, -1.000000000000000000 ) ) ;
#134 = DIRECTION ( 'NONE',  ( -0.0000000000000000000, -1.000000000000000000, -0.0000000000000000000 ) ) ;
#135 = CARTESIAN_POINT ( 'NONE',  ( 0.0000000000000000000, 0.1250000000000000000, 0.0000000000000000000 ) ) ;
#136 = EDGE_LOOP ( 'NONE', ( #182, #183 ) ) ;
#137 = EDGE_LOOP ( 'NONE', ( #186, #185 ) ) ;
#138 =( NAMED_UNIT ( * ) SI_UNIT ( $, .STERADIAN. ) SOLID_ANGLE_UNIT ( ) );
#139 =( NAMED_UNIT ( * ) PLANE_ANGLE_UNIT ( ) SI_UNIT ( $, .RADIAN. ) );
#140 =( CONVERSION_BASED_UNIT ( 'INCH', #266 ) LENGTH_UNIT ( ) NAMED_UNIT ( #211 ) );
#141 =( LENGTH_UNIT ( ) NAMED_UNIT ( * ) SI_UNIT ( $, .METRE. ) );
#142 = PRESENTATION_STYLE_ASSIGNMENT (( #143 ) ) ;
#143 = SURFACE_STYLE_USAGE ( .BOTH. , #144 ) ;
#144 = SURFACE_SIDE_STYLE ('',( #145 ) ) ;
#145 = SURFACE_STYLE_FILL_AREA ( #146 ) ;
#146 = FILL_AREA_STYLE ('',( #147 ) ) ;
#147 = FILL_AREA_STYLE_COLOUR ( '', #219 ) ;
#148 = CARTESIAN_POINT ( 'NONE',  ( 0.0000000000000000000, 0.1250000000000000000, -0.2500000000000000000 ) ) ;
#149 = CARTESIAN_POINT ( 'NONE',  ( 3.061616997868383000E-017, 0.1250000000000000000, 0.2500000000000000000 ) ) ;
#150 = CARTESIAN_POINT ( 'NONE',  ( 3.061616997868383000E-017, 0.0000000000000000000, 0.2500000000000000000 ) ) ;
#151 = CARTESIAN_POINT ( 'NONE',  ( 0.0000000000000000000, 0.0000000000000000000, -0.2500000000000000000 ) ) ;
#152 = CARTESIAN_POINT ( 'NONE',  ( 0.0000000000000000000, 0.03000000000000000600, 0.06749999999999999100 ) ) ;
#153 = CARTESIAN_POINT ( 'NONE',  ( 1.331803394072741700E-017, 0.03000000000000000600, -0.06749999999999999100 ) ) ;
#154 = CARTESIAN_POINT ( 'NONE',  ( 8.266365894244634300E-018, 0.0000000000000000000, 0.06749999999999999100 ) ) ;
#155 = CARTESIAN_POINT ( 'NONE',  ( 0.0000000000000000000, 0.0000000000000000000, -0.06749999999999999100 ) ) ;
#156 = CARTESIAN_POINT ( 'NONE',  ( 1.836970198721020500E-017, 0.1250000000000000000, -0.1499999999999992200 ) ) ;
#157 = CARTESIAN_POINT ( 'NONE',  ( 0.0000000000000000000, 0.1250000000000000000, 0.1499999999999992200 ) ) ;
#158 = ORIENTED_EDGE ( 'NONE', *, *, #248, .F. ) ;
#159 = ORIENTED_EDGE ( 'NONE', *, *, #256, .T. ) ;
#160 = ORIENTED_EDGE ( 'NONE', *, *, #249, .F. ) ;
#161 = ORIENTED_EDGE ( 'NONE', *, *, #251, .F. ) ;
#162 = ORIENTED_EDGE ( 'NONE', *, *, #252, .T. ) ;
#163 = ORIENTED_EDGE ( 'NONE', *, *, #250, .T. ) ;
#164 = ORIENTED_EDGE ( 'NONE', *, *, #253, .F. ) ;
#165 = ORIENTED_EDGE ( 'NONE', *, *, #251, .T. ) ;
#166 = ORIENTED_EDGE ( 'NONE', *, *, #255, .F. ) ;
#167 = ORIENTED_EDGE ( 'NONE', *, *, #254, .T. ) ;
#168 = ORIENTED_EDGE ( 'NONE', *, *, #226, .F. ) ;
#169 = ORIENTED_EDGE ( 'NONE', *, *, #224, .F. ) ;
#170 = ORIENTED_EDGE ( 'NONE', *, *, #254, .F. ) ;
#171 = ORIENTED_EDGE ( 'NONE', *, *, #217, .F. ) ;
#172 = ORIENTED_EDGE ( 'NONE', *, *, #218, .T. ) ;
#173 = ORIENTED_EDGE ( 'NONE', *, *, #255, .T. ) ;
#174 = ORIENTED_EDGE ( 'NONE', *, *, #226, .T. ) ;
#175 = ORIENTED_EDGE ( 'NONE', *, *, #220, .T. ) ;
#176 = ORIENTED_EDGE ( 'NONE', *, *, #221, .T. ) ;
#177 = ORIENTED_EDGE ( 'NONE', *, *, #218, .F. ) ;
#178 = ORIENTED_EDGE ( 'NONE', *, *, #250, .F. ) ;
#179 = ORIENTED_EDGE ( 'NONE', *, *, #220, .F. ) ;
#180 = ORIENTED_EDGE ( 'NONE', *, *, #253, .T. ) ;
#181 = ORIENTED_EDGE ( 'NONE', *, *, #223, .F. ) ;
#182 = ORIENTED_EDGE ( 'NONE', *, *, #248, .T. ) ;
#183 = ORIENTED_EDGE ( 'NONE', *, *, #223, .T. ) ;
#184 = ORIENTED_EDGE ( 'NONE', *, *, #224, .T. ) ;
#185 = ORIENTED_EDGE ( 'NONE', *, *, #252, .F. ) ;
#186 = ORIENTED_EDGE ( 'NONE', *, *, #221, .F. ) ;
#187 = ORIENTED_EDGE ( 'NONE', *, *, #256, .F. ) ;
#188 = ORIENTED_EDGE ( 'NONE', *, *, #217, .T. ) ;
#189 = ORIENTED_EDGE ( 'NONE', *, *, #249, .T. ) ;
#190 = VERTEX_POINT ( 'NONE', #157 ) ;
#191 = VERTEX_POINT ( 'NONE', #156 ) ;
#192 = VERTEX_POINT ( 'NONE', #155 ) ;
#193 = VERTEX_POINT ( 'NONE', #154 ) ;
#194 = VERTEX_POINT ( 'NONE', #153 ) ;
#195 = VERTEX_POINT ( 'NONE', #152 ) ;
#196 = VERTEX_POINT ( 'NONE', #151 ) ;
#197 = VERTEX_POINT ( 'NONE', #150 ) ;
#198 = VERTEX_POINT ( 'NONE', #149 ) ;
#199 = VERTEX_POINT ( 'NONE', #148 ) ;
#200 = EDGE_LOOP ( 'NONE', ( #161, #163, #162, #164 ) ) ;
#201 = EDGE_LOOP ( 'NONE', ( #165, #167, #166, #168 ) ) ;
#202 = EDGE_LOOP ( 'NONE', ( #187, #188, #189, #181 ) ) ;
#203 = EDGE_LOOP ( 'NONE', ( #169, #171 ) ) ;
#204 = EDGE_LOOP ( 'NONE', ( #173, #172 ) ) ;
#205 = EDGE_LOOP ( 'NONE', ( #184, #159, #158, #160 ) ) ;
#206 = EDGE_LOOP ( 'NONE', ( #170, #175, #174, #177 ) ) ;
#207 = EDGE_LOOP ( 'NONE', ( #178, #179, #180, #176 ) ) ;
#208 = DIMENSIONAL_EXPONENTS ( 1.000000000000000000, 0.0000000000000000000, 0.0000000000000000000, 0.0000000000000000000, 0.0000000000000000000, 0.0000000000000000000, 0.0000000000000000000 ) ;
#209 = PRODUCT ( 'DH125D-FS', 'DH125D-FS', '', ( #9 ) ) ;
#210 = DIMENSIONAL_EXPONENTS ( 1.000000000000000000, 0.0000000000000000000, 0.0000000000000000000, 0.0000000000000000000, 0.0000000000000000000, 0.0000000000000000000, 0.0000000000000000000 ) ;
#211 = DIMENSIONAL_EXPONENTS ( 1.000000000000000000, 0.0000000000000000000, 0.0000000000000000000, 0.0000000000000000000, 0.0000000000000000000, 0.0000000000000000000, 0.0000000000000000000 ) ;
#212 = PRODUCT_DEFINITION_SHAPE ( 'NONE', 'NONE',  #228 ) ;
#213 = PRODUCT_DEFINITION_CONTEXT ( 'detailed design', #216, 'design' ) ;
#214 = MANIFOLD_SOLID_BREP ( 'Revolve1', #263 ) ;
#215 = APPLICATION_CONTEXT ( 'automotive_design' ) ;
#216 = APPLICATION_CONTEXT ( 'automotive_design' ) ;
#217 = EDGE_CURVE ( 'NONE', #198, #199, #241, .T. ) ;
#218 = EDGE_CURVE ( 'NONE', #191, #190, #238, .T. ) ;
#219 = COLOUR_RGB ( '',0.5686274509803921400, 0.5686274509803921400, 0.5882352941176470800 ) ;
#220 = EDGE_CURVE ( 'NONE', #194, #195, #239, .T. ) ;
#221 = EDGE_CURVE ( 'NONE', #192, #193, #240, .T. ) ;
#222 = ADVANCED_FACE ( 'NONE', ( #270 ), #271, .F. ) ;
#223 = EDGE_CURVE ( 'NONE', #197, #196, #236, .T. ) ;
#224 = EDGE_CURVE ( 'NONE', #199, #198, #237, .T. ) ;
#225 = ADVANCED_FACE ( 'NONE', ( #101 ), #99, .T. ) ;
#226 = EDGE_CURVE ( 'NONE', #195, #190, #111, .T. ) ;
#227 = PRODUCT_RELATED_PRODUCT_CATEGORY ( 'part', '', ( #209 ) ) ;
#228 = PRODUCT_DEFINITION ( 'UNKNOWN', '', #83, #213 ) ;
#229 = COLOUR_RGB ( '',0.5686274509803921400, 0.5686274509803921400, 0.5882352941176470800 ) ;
#230 = CIRCLE ( 'NONE', #85, 0.1499999999999992200 ) ;
#231 = CIRCLE ( 'NONE', #82, 0.06749999999999999100 ) ;
#232 = CIRCLE ( 'NONE', #91, 0.2500000000000000000 ) ;
#233 = CONICAL_SURFACE ( 'NONE', #78, 0.1499999999999992200, 0.7150916992788192200 ) ;
#234 = CONICAL_SURFACE ( 'NONE', #90, 0.1499999999999992200, 0.7150916992788192200 ) ;
#235 = CIRCLE ( 'NONE', #65, 0.06749999999999999100 ) ;
#236 = CIRCLE ( 'NONE', #100, 0.2500000000000000000 ) ;
#237 = CIRCLE ( 'NONE', #97, 0.2500000000000000000 ) ;
#238 = CIRCLE ( 'NONE', #268, 0.1499999999999992200 ) ;
#239 = CIRCLE ( 'NONE', #264, 0.06749999999999999100 ) ;
#240 = CIRCLE ( 'NONE', #265, 0.06749999999999999100 ) ;
#241 = CIRCLE ( 'NONE', #269, 0.2500000000000000000 ) ;
#242 = ADVANCED_FACE ( 'NONE', ( #98 ), #234, .F. ) ;
#243 = ADVANCED_FACE ( 'NONE', ( #94, #88 ), #105, .F. ) ;
#244 = ADVANCED_FACE ( 'NONE', ( #87 ), #233, .F. ) ;
#245 = ADVANCED_FACE ( 'NONE', ( #96 ), #69, .F. ) ;
#246 = ADVANCED_FACE ( 'NONE', ( #93, #67 ), #25, .T. ) ;
#247 = ADVANCED_FACE ( 'NONE', ( #66 ), #89, .T. ) ;
#248 = EDGE_CURVE ( 'NONE', #196, #197, #232, .T. ) ;
#249 = EDGE_CURVE ( 'NONE', #199, #196, #53, .T. ) ;
#250 = EDGE_CURVE ( 'NONE', #195, #193, #50, .T. ) ;
#251 = EDGE_CURVE ( 'NONE', #195, #194, #235, .T. ) ;
#252 = EDGE_CURVE ( 'NONE', #193, #192, #231, .T. ) ;
#253 = EDGE_CURVE ( 'NONE', #194, #192, #40, .T. ) ;
#254 = EDGE_CURVE ( 'NONE', #194, #191, #37, .T. ) ;
#255 = EDGE_CURVE ( 'NONE', #190, #191, #230, .T. ) ;
#256 = EDGE_CURVE ( 'NONE', #198, #197, #32, .T. ) ;
#257 =( GEOMETRIC_REPRESENTATION_CONTEXT ( 3 ) GLOBAL_UNCERTAINTY_ASSIGNED_CONTEXT ( ( #2 ) ) GLOBAL_UNIT_ASSIGNED_CONTEXT ( ( #15, #14, #10 ) ) REPRESENTATION_CONTEXT ( 'NONE', 'WORKASPACE' ) );
#258 =( GEOMETRIC_REPRESENTATION_CONTEXT ( 3 ) GLOBAL_UNCERTAINTY_ASSIGNED_CONTEXT ( ( #1 ) ) GLOBAL_UNIT_ASSIGNED_CONTEXT ( ( #140, #139, #138 ) ) REPRESENTATION_CONTEXT ( 'NONE', 'WORKASPACE' ) );
#259 =( GEOMETRIC_REPRESENTATION_CONTEXT ( 3 ) GLOBAL_UNCERTAINTY_ASSIGNED_CONTEXT ( ( #260 ) ) GLOBAL_UNIT_ASSIGNED_CONTEXT ( ( #26, #24, #23 ) ) REPRESENTATION_CONTEXT ( 'NONE', 'WORKASPACE' ) );
#260 = UNCERTAINTY_MEASURE_WITH_UNIT (LENGTH_MEASURE( 1.000000000000000100E-005 ), #26, 'distance_accuracy_value', 'NONE');
#261 = ADVANCED_BREP_SHAPE_REPRESENTATION ( 'DH125D-FS', ( #214, #79 ), #259 ) ;
#262 = PRESENTATION_LAYER_ASSIGNMENT (  '', '', ( #272 ) ) ;
#263 = CLOSED_SHELL ( 'NONE', ( #225, #222, #242, #243, #244, #245, #246, #247 ) ) ;
#264 = AXIS2_PLACEMENT_3D ( 'NONE', #129, #128, #127 ) ;
#265 = AXIS2_PLACEMENT_3D ( 'NONE', #126, #125, #124 ) ;
#266 = LENGTH_MEASURE_WITH_UNIT ( LENGTH_MEASURE( 0.02539999999999999900 ), #141 );
#267 = AXIS2_PLACEMENT_3D ( 'NONE', #123, #122, #121 ) ;
#268 = AXIS2_PLACEMENT_3D ( 'NONE', #132, #131, #130 ) ;
#269 = AXIS2_PLACEMENT_3D ( 'NONE', #135, #134, #133 ) ;
#270 = FACE_OUTER_BOUND ( 'NONE', #200, .T. ) ;
#271 = CYLINDRICAL_SURFACE ( 'NONE', #267, 0.06749999999999999100 ) ;
#272 = STYLED_ITEM ( 'NONE', ( #142 ), #214 ) ;
#273 = MECHANICAL_DESIGN_GEOMETRIC_PRESENTATION_REPRESENTATION (  '', ( #272 ), #258 ) ;
ENDSEC;
END-ISO-10303-21;
