ISO-10303-21;
HEADER;
FILE_DESCRIPTION (( 'STEP AP214' ),
    '1' );
FILE_NAME ('DH125F-FN-N42.step',
    '2012-04-20T20:57:10',
    ( '' ),
    ( '' ),
    'SwSTEP 2.0',
    'SolidWorks 2012',
    '' );
FILE_SCHEMA (( 'AUTOMOTIVE_DESIGN' ));
ENDSEC;

DATA;
#1 = ADVANCED_BREP_SHAPE_REPRESENTATION ( 'DH125F-FN-N42', ( #248, #117 ), #134 ) ;
#2 = UNCERTAINTY_MEASURE_WITH_UNIT (LENGTH_MEASURE( 1.000000000000000100E-005 ), #27, 'distance_accuracy_value', 'NONE');
#3 = UNCERTAINTY_MEASURE_WITH_UNIT (LENGTH_MEASURE( 1.000000000000000100E-005 ), #15, 'distance_accuracy_value', 'NONE');
#4 = UNCERTAINTY_MEASURE_WITH_UNIT (LENGTH_MEASURE( 1.000000000000000100E-005 ), #52, 'distance_accuracy_value', 'NONE');
#5 = DIRECTION ( 'NONE',  ( 0.0000000000000000000, 0.0000000000000000000, 1.000000000000000000 ) ) ;
#6 =( NAMED_UNIT ( * ) PLANE_ANGLE_UNIT ( ) SI_UNIT ( $, .RADIAN. ) );
#7 = APPLICATION_PROTOCOL_DEFINITION ( 'draft international standard', 'automotive_design', 1998, #252 ) ;
#8 = PRODUCT_CONTEXT ( 'NONE', #251, 'mechanical' ) ;
#9 = APPLICATION_PROTOCOL_DEFINITION ( 'draft international standard', 'automotive_design', 1998, #251 ) ;
#10 = DIRECTION ( 'NONE',  ( 1.000000000000000000, 0.0000000000000000000, 0.0000000000000000000 ) ) ;
#11 = DIRECTION ( 'NONE',  ( 0.0000000000000000000, 0.0000000000000000000, 1.000000000000000000 ) ) ;
#12 = CARTESIAN_POINT ( 'NONE',  ( 0.0000000000000000000, 0.0000000000000000000, 0.0000000000000000000 ) ) ;
#13 =( NAMED_UNIT ( * ) SI_UNIT ( $, .STERADIAN. ) SOLID_ANGLE_UNIT ( ) );
#14 =( NAMED_UNIT ( * ) PLANE_ANGLE_UNIT ( ) SI_UNIT ( $, .RADIAN. ) );
#15 =( CONVERSION_BASED_UNIT ( 'INCH', #112 ) LENGTH_UNIT ( ) NAMED_UNIT ( #171 ) );
#16 =( LENGTH_UNIT ( ) NAMED_UNIT ( * ) SI_UNIT ( $, .METRE. ) );
#17 = PRESENTATION_STYLE_ASSIGNMENT (( #18 ) ) ;
#18 = SURFACE_STYLE_USAGE ( .BOTH. , #19 ) ;
#19 = SURFACE_SIDE_STYLE ('',( #20 ) ) ;
#20 = SURFACE_STYLE_FILL_AREA ( #21 ) ;
#21 = FILL_AREA_STYLE ('',( #22 ) ) ;
#22 = FILL_AREA_STYLE_COLOUR ( '', #163 ) ;
#23 = SHAPE_DEFINITION_REPRESENTATION ( #249, #1 ) ;
#24 = DIRECTION ( 'NONE',  ( 0.0000000000000000000, 1.000000000000000000, 0.0000000000000000000 ) ) ;
#25 = DIRECTION ( 'NONE',  ( -0.0000000000000000000, -1.000000000000000000, -0.0000000000000000000 ) ) ;
#26 =( NAMED_UNIT ( * ) SI_UNIT ( $, .STERADIAN. ) SOLID_ANGLE_UNIT ( ) );
#27 =( CONVERSION_BASED_UNIT ( 'INCH', #107 ) LENGTH_UNIT ( ) NAMED_UNIT ( #170 ) );
#28 = CARTESIAN_POINT ( 'NONE',  ( 4.592425496802575500E-017, 0.1250000000000000000, 0.3750000000000000600 ) ) ;
#29 =( LENGTH_UNIT ( ) NAMED_UNIT ( * ) SI_UNIT ( $, .METRE. ) );
#30 = DIRECTION ( 'NONE',  ( -0.0000000000000000000, 1.000000000000000000, -0.0000000000000000000 ) ) ;
#31 = DIRECTION ( 'NONE',  ( 0.0000000000000000000, 0.0000000000000000000, 1.000000000000000000 ) ) ;
#32 = CARTESIAN_POINT ( 'NONE',  ( 0.0000000000000000000, 0.1250000000000000000, 0.0000000000000000000 ) ) ;
#33 = DIRECTION ( 'NONE',  ( 0.0000000000000000000, -0.0000000000000000000, 1.000000000000000000 ) ) ;
#34 = CARTESIAN_POINT ( 'NONE',  ( 1.187907395172932400E-017, 0.1250000000000000000, -0.09699999999999998900 ) ) ;
#35 = CARTESIAN_POINT ( 'NONE',  ( 0.0000000000000000000, 0.0000000000000000000, 0.0000000000000000000 ) ) ;
#36 = PLANE ( 'NONE',  #100 ) ;
#37 = DIRECTION ( 'NONE',  ( 0.0000000000000000000, -0.0000000000000000000, 1.000000000000000000 ) ) ;
#38 = DIRECTION ( 'NONE',  ( -0.0000000000000000000, 1.000000000000000000, -0.0000000000000000000 ) ) ;
#39 = DIRECTION ( 'NONE',  ( 0.0000000000000000000, 1.000000000000000000, 0.0000000000000000000 ) ) ;
#40 = DIRECTION ( 'NONE',  ( 0.0000000000000000000, 1.000000000000000000, 0.0000000000000000000 ) ) ;
#41 = CARTESIAN_POINT ( 'NONE',  ( 0.0000000000000000000, 0.1250000000000000000, 0.0000000000000000000 ) ) ;
#42 = LINE ( 'NONE', #34, #104 ) ;
#43 = PLANE ( 'NONE',  #114 ) ;
#44 = DIRECTION ( 'NONE',  ( 0.0000000000000000000, 0.0000000000000000000, 1.000000000000000000 ) ) ;
#45 = DIRECTION ( 'NONE',  ( -0.0000000000000000000, 1.000000000000000000, -0.0000000000000000000 ) ) ;
#46 = CARTESIAN_POINT ( 'NONE',  ( 0.0000000000000000000, 0.1250000000000000000, 0.0000000000000000000 ) ) ;
#47 = DIRECTION ( 'NONE',  ( 0.0000000000000000000, 0.7547095802227722400, 0.6560590289905070500 ) ) ;
#48 = CARTESIAN_POINT ( 'NONE',  ( 0.0000000000000000000, 0.1250000000000000000, 0.1749999999999999900 ) ) ;
#49 = LINE ( 'NONE', #48, #109 ) ;
#50 = DIRECTION ( 'NONE',  ( 0.0000000000000000000, 0.0000000000000000000, 1.000000000000000000 ) ) ;
#51 = CARTESIAN_POINT ( 'NONE',  ( 0.0000000000000000000, 0.0000000000000000000, 0.0000000000000000000 ) ) ;
#52 =( CONVERSION_BASED_UNIT ( 'INCH', #118 ) LENGTH_UNIT ( ) NAMED_UNIT ( #169 ) );
#53 =( LENGTH_UNIT ( ) NAMED_UNIT ( * ) SI_UNIT ( $, .METRE. ) );
#54 = DIRECTION ( 'NONE',  ( 0.0000000000000000000, 1.000000000000000000, 0.0000000000000000000 ) ) ;
#55 =( NAMED_UNIT ( * ) PLANE_ANGLE_UNIT ( ) SI_UNIT ( $, .RADIAN. ) );
#56 =( NAMED_UNIT ( * ) SI_UNIT ( $, .STERADIAN. ) SOLID_ANGLE_UNIT ( ) );
#57 = PRESENTATION_STYLE_ASSIGNMENT (( #58 ) ) ;
#58 = SURFACE_STYLE_USAGE ( .BOTH. , #59 ) ;
#59 = SURFACE_SIDE_STYLE ('',( #60 ) ) ;
#60 = SURFACE_STYLE_FILL_AREA ( #61 ) ;
#61 = FILL_AREA_STYLE ('',( #62 ) ) ;
#62 = FILL_AREA_STYLE_COLOUR ( '', #167 ) ;
#63 = CARTESIAN_POINT ( 'NONE',  ( 2.143131898507868000E-017, 0.1250000000000000000, -0.1749999999999999900 ) ) ;
#64 = CARTESIAN_POINT ( 'NONE',  ( 1.187907395172932400E-017, 0.03527126423676120400, -0.09699999999999998900 ) ) ;
#65 = CARTESIAN_POINT ( 'NONE',  ( 0.0000000000000000000, 0.0000000000000000000, -0.3750000000000000600 ) ) ;
#66 = CARTESIAN_POINT ( 'NONE',  ( 4.592425496802575500E-017, 0.0000000000000000000, 0.3750000000000000600 ) ) ;
#67 = CARTESIAN_POINT ( 'NONE',  ( 0.0000000000000000000, 0.1250000000000000000, -0.3750000000000000600 ) ) ;
#68 = CARTESIAN_POINT ( 'NONE',  ( 4.592425496802575500E-017, 0.1250000000000000000, 0.3750000000000000600 ) ) ;
#69 = CARTESIAN_POINT ( 'NONE',  ( 0.0000000000000000000, 1.707404996040164500E-017, 0.09699999999999998900 ) ) ;
#70 = CARTESIAN_POINT ( 'NONE',  ( 1.187907395172932400E-017, 1.707404996040164500E-017, -0.09699999999999998900 ) ) ;
#71 = CARTESIAN_POINT ( 'NONE',  ( 0.0000000000000000000, 0.03527126423676120400, 0.09699999999999998900 ) ) ;
#72 = CARTESIAN_POINT ( 'NONE',  ( 0.0000000000000000000, 0.1250000000000000000, 0.1749999999999999900 ) ) ;
#73 = DIRECTION ( 'NONE',  ( 0.0000000000000000000, 0.0000000000000000000, -1.000000000000000000 ) ) ;
#74 = DIRECTION ( 'NONE',  ( -0.0000000000000000000, -1.000000000000000000, -0.0000000000000000000 ) ) ;
#75 = CARTESIAN_POINT ( 'NONE',  ( 0.0000000000000000000, 0.1250000000000000000, 0.0000000000000000000 ) ) ;
#76 = DIRECTION ( 'NONE',  ( 0.0000000000000000000, 0.0000000000000000000, -1.000000000000000000 ) ) ;
#77 = DIRECTION ( 'NONE',  ( -0.0000000000000000000, -1.000000000000000000, -0.0000000000000000000 ) ) ;
#78 = CARTESIAN_POINT ( 'NONE',  ( 0.0000000000000000000, 0.1250000000000000000, 0.0000000000000000000 ) ) ;
#79 = DIRECTION ( 'NONE',  ( 0.0000000000000000000, 0.0000000000000000000, 1.000000000000000000 ) ) ;
#80 = DIRECTION ( 'NONE',  ( -0.0000000000000000000, 1.000000000000000000, -0.0000000000000000000 ) ) ;
#81 = CARTESIAN_POINT ( 'NONE',  ( 0.0000000000000000000, 0.1250000000000000000, 0.0000000000000000000 ) ) ;
#82 = DIRECTION ( 'NONE',  ( 0.0000000000000000000, 0.0000000000000000000, 1.000000000000000000 ) ) ;
#83 = DIRECTION ( 'NONE',  ( -0.0000000000000000000, 1.000000000000000000, -0.0000000000000000000 ) ) ;
#84 = CARTESIAN_POINT ( 'NONE',  ( 0.0000000000000000000, 0.1250000000000000000, 0.0000000000000000000 ) ) ;
#85 = DIRECTION ( 'NONE',  ( 0.0000000000000000000, 0.0000000000000000000, 1.000000000000000000 ) ) ;
#86 = DIRECTION ( 'NONE',  ( -0.0000000000000000000, 1.000000000000000000, -0.0000000000000000000 ) ) ;
#87 = CARTESIAN_POINT ( 'NONE',  ( 0.0000000000000000000, 0.1250000000000000000, 0.0000000000000000000 ) ) ;
#88 = DIRECTION ( 'NONE',  ( 0.0000000000000000000, 0.0000000000000000000, 1.000000000000000000 ) ) ;
#89 = DIRECTION ( 'NONE',  ( 0.0000000000000000000, 1.000000000000000000, 0.0000000000000000000 ) ) ;
#90 = CARTESIAN_POINT ( 'NONE',  ( 0.0000000000000000000, 0.0000000000000000000, 0.0000000000000000000 ) ) ;
#91 = DIRECTION ( 'NONE',  ( 0.0000000000000000000, 0.0000000000000000000, 1.000000000000000000 ) ) ;
#92 = DIRECTION ( 'NONE',  ( 0.0000000000000000000, 1.000000000000000000, 0.0000000000000000000 ) ) ;
#93 = DIRECTION ( 'NONE',  ( -0.0000000000000000000, -1.000000000000000000, -0.0000000000000000000 ) ) ;
#94 = CARTESIAN_POINT ( 'NONE',  ( 0.0000000000000000000, 0.1250000000000000000, -0.3750000000000000600 ) ) ;
#95 = LINE ( 'NONE', #94, #132 ) ;
#96 = CARTESIAN_POINT ( 'NONE',  ( 0.0000000000000000000, 0.1250000000000000000, 0.0000000000000000000 ) ) ;
#97 = FACE_OUTER_BOUND ( 'NONE', #242, .T. ) ;
#98 = STYLED_ITEM ( 'NONE', ( #17 ), #1 ) ;
#99 = AXIS2_PLACEMENT_3D ( 'NONE', #32, #30, #31 ) ;
#100 = AXIS2_PLACEMENT_3D ( 'NONE', #35, #39, #33 ) ;
#101 = PRESENTATION_LAYER_ASSIGNMENT (  '', '', ( #98 ) ) ;
#102 = CYLINDRICAL_SURFACE ( 'NONE', #99, 0.09699999999999998900 ) ;
#103 = FACE_OUTER_BOUND ( 'NONE', #239, .T. ) ;
#104 = VECTOR ( 'NONE', #38, 39.37007874015748100 ) ;
#105 = FACE_OUTER_BOUND ( 'NONE', #241, .T. ) ;
#106 = MECHANICAL_DESIGN_GEOMETRIC_PRESENTATION_REPRESENTATION (  '', ( #98 ), #168 ) ;
#107 = LENGTH_MEASURE_WITH_UNIT ( LENGTH_MEASURE( 0.02539999999999999900 ), #29 );
#108 = AXIS2_PLACEMENT_3D ( 'NONE', #96, #92, #91 ) ;
#109 = VECTOR ( 'NONE', #47, 39.37007874015748900 ) ;
#110 = PRODUCT_DEFINITION_FORMATION_WITH_SPECIFIED_SOURCE ( 'ANY', '', #172, .NOT_KNOWN. ) ;
#111 = AXIS2_PLACEMENT_3D ( 'NONE', #46, #45, #44 ) ;
#112 = LENGTH_MEASURE_WITH_UNIT ( LENGTH_MEASURE( 0.02539999999999999900 ), #16 );
#113 = FACE_BOUND ( 'NONE', #238, .T. ) ;
#114 = AXIS2_PLACEMENT_3D ( 'NONE', #41, #40, #37 ) ;
#115 = FACE_BOUND ( 'NONE', #240, .T. ) ;
#116 = AXIS2_PLACEMENT_3D ( 'NONE', #51, #54, #5 ) ;
#117 = AXIS2_PLACEMENT_3D ( 'NONE', #12, #11, #10 ) ;
#118 = LENGTH_MEASURE_WITH_UNIT ( LENGTH_MEASURE( 0.02539999999999999900 ), #53 );
#119 = MECHANICAL_DESIGN_GEOMETRIC_PRESENTATION_REPRESENTATION (  '', ( #129 ), #133 ) ;
#120 = CYLINDRICAL_SURFACE ( 'NONE', #121, 0.3750000000000000600 ) ;
#121 = AXIS2_PLACEMENT_3D ( 'NONE', #75, #74, #73 ) ;
#122 = PRESENTATION_LAYER_ASSIGNMENT (  '', '', ( #129 ) ) ;
#123 = CYLINDRICAL_SURFACE ( 'NONE', #124, 0.3750000000000000600 ) ;
#124 = AXIS2_PLACEMENT_3D ( 'NONE', #78, #77, #76 ) ;
#125 = AXIS2_PLACEMENT_3D ( 'NONE', #81, #80, #79 ) ;
#126 = FACE_OUTER_BOUND ( 'NONE', #237, .T. ) ;
#127 = FACE_OUTER_BOUND ( 'NONE', #236, .T. ) ;
#128 = AXIS2_PLACEMENT_3D ( 'NONE', #84, #83, #82 ) ;
#129 = STYLED_ITEM ( 'NONE', ( #57 ), #248 ) ;
#130 = FACE_OUTER_BOUND ( 'NONE', #235, .T. ) ;
#131 = FACE_OUTER_BOUND ( 'NONE', #234, .T. ) ;
#132 = VECTOR ( 'NONE', #93, 39.37007874015748100 ) ;
#133 =( GEOMETRIC_REPRESENTATION_CONTEXT ( 3 ) GLOBAL_UNCERTAINTY_ASSIGNED_CONTEXT ( ( #4 ) ) GLOBAL_UNIT_ASSIGNED_CONTEXT ( ( #52, #55, #56 ) ) REPRESENTATION_CONTEXT ( 'NONE', 'WORKASPACE' ) );
#134 =( GEOMETRIC_REPRESENTATION_CONTEXT ( 3 ) GLOBAL_UNCERTAINTY_ASSIGNED_CONTEXT ( ( #2 ) ) GLOBAL_UNIT_ASSIGNED_CONTEXT ( ( #27, #6, #26 ) ) REPRESENTATION_CONTEXT ( 'NONE', 'WORKASPACE' ) );
#135 = ADVANCED_FACE ( 'NONE', ( #264 ), #253, .F. ) ;
#136 = EDGE_CURVE ( 'NONE', #217, #216, #153, .T. ) ;
#137 = EDGE_CURVE ( 'NONE', #215, #222, #154, .T. ) ;
#138 = EDGE_CURVE ( 'NONE', #222, #223, #185, .T. ) ;
#139 = EDGE_CURVE ( 'NONE', #222, #215, #155, .T. ) ;
#140 = EDGE_CURVE ( 'NONE', #216, #217, #156, .T. ) ;
#141 = EDGE_CURVE ( 'NONE', #217, #215, #176, .T. ) ;
#142 = EDGE_CURVE ( 'NONE', #218, #220, #173, .T. ) ;
#143 = EDGE_CURVE ( 'NONE', #218, #219, #157, .T. ) ;
#144 = EDGE_CURVE ( 'NONE', #220, #221, #158, .T. ) ;
#145 = EDGE_CURVE ( 'NONE', #219, #221, #95, .T. ) ;
#146 = EDGE_CURVE ( 'NONE', #219, #218, #159, .T. ) ;
#147 = EDGE_CURVE ( 'NONE', #221, #220, #160, .T. ) ;
#148 = EDGE_CURVE ( 'NONE', #209, #223, #161, .T. ) ;
#149 = ADVANCED_FACE ( 'NONE', ( #130 ), #263, .F. ) ;
#150 = ADVANCED_FACE ( 'NONE', ( #131 ), #162, .F. ) ;
#151 = ADVANCED_FACE ( 'NONE', ( #126 ), #123, .T. ) ;
#152 = ADVANCED_FACE ( 'NONE', ( #127 ), #120, .T. ) ;
#153 = CIRCLE ( 'NONE', #270, 0.09699999999999998900 ) ;
#154 = CIRCLE ( 'NONE', #262, 0.09699999999999998900 ) ;
#155 = CIRCLE ( 'NONE', #266, 0.09699999999999998900 ) ;
#156 = CIRCLE ( 'NONE', #261, 0.09699999999999998900 ) ;
#157 = CIRCLE ( 'NONE', #269, 0.3750000000000000600 ) ;
#158 = CIRCLE ( 'NONE', #116, 0.3750000000000000600 ) ;
#159 = CIRCLE ( 'NONE', #108, 0.3750000000000000600 ) ;
#160 = CIRCLE ( 'NONE', #268, 0.3750000000000000600 ) ;
#161 = CIRCLE ( 'NONE', #271, 0.1749999999999999900 ) ;
#162 = CONICAL_SURFACE ( 'NONE', #125, 0.1749999999999999900, 0.7155849933176748900 ) ;
#163 = COLOUR_RGB ( '',0.5686274509803921400, 0.5686274509803921400, 0.5882352941176470800 ) ;
#164 = PRODUCT_DEFINITION ( 'UNKNOWN', '', #110, #250 ) ;
#165 = PRODUCT_RELATED_PRODUCT_CATEGORY ( 'part', '', ( #172 ) ) ;
#166 = CIRCLE ( 'NONE', #111, 0.1749999999999999900 ) ;
#167 = COLOUR_RGB ( '',0.5686274509803921400, 0.5686274509803921400, 0.5882352941176470800 ) ;
#168 =( GEOMETRIC_REPRESENTATION_CONTEXT ( 3 ) GLOBAL_UNCERTAINTY_ASSIGNED_CONTEXT ( ( #3 ) ) GLOBAL_UNIT_ASSIGNED_CONTEXT ( ( #15, #14, #13 ) ) REPRESENTATION_CONTEXT ( 'NONE', 'WORKASPACE' ) );
#169 = DIMENSIONAL_EXPONENTS ( 1.000000000000000000, 0.0000000000000000000, 0.0000000000000000000, 0.0000000000000000000, 0.0000000000000000000, 0.0000000000000000000, 0.0000000000000000000 ) ;
#170 = DIMENSIONAL_EXPONENTS ( 1.000000000000000000, 0.0000000000000000000, 0.0000000000000000000, 0.0000000000000000000, 0.0000000000000000000, 0.0000000000000000000, 0.0000000000000000000 ) ;
#171 = DIMENSIONAL_EXPONENTS ( 1.000000000000000000, 0.0000000000000000000, 0.0000000000000000000, 0.0000000000000000000, 0.0000000000000000000, 0.0000000000000000000, 0.0000000000000000000 ) ;
#172 = PRODUCT ( 'DH125F-FN-N42', 'DH125F-FN-N42', '', ( #8 ) ) ;
#173 = LINE ( 'NONE', #28, #272 ) ;
#174 = DIRECTION ( 'NONE',  ( -0.0000000000000000000, 1.000000000000000000, -0.0000000000000000000 ) ) ;
#175 = CARTESIAN_POINT ( 'NONE',  ( 0.0000000000000000000, 0.1250000000000000000, 0.09699999999999998900 ) ) ;
#176 = LINE ( 'NONE', #175, #260 ) ;
#177 = CARTESIAN_POINT ( 'NONE',  ( 0.0000000000000000000, 0.1250000000000000000, 0.0000000000000000000 ) ) ;
#178 = DIRECTION ( 'NONE',  ( 0.0000000000000000000, 0.0000000000000000000, 1.000000000000000000 ) ) ;
#179 = DIRECTION ( 'NONE',  ( -0.0000000000000000000, 1.000000000000000000, -0.0000000000000000000 ) ) ;
#180 = CARTESIAN_POINT ( 'NONE',  ( 0.0000000000000000000, 1.707404996040164500E-017, 0.0000000000000000000 ) ) ;
#181 = DIRECTION ( 'NONE',  ( 0.0000000000000000000, 0.0000000000000000000, 1.000000000000000000 ) ) ;
#182 = DIRECTION ( 'NONE',  ( -0.0000000000000000000, 1.000000000000000000, -0.0000000000000000000 ) ) ;
#183 = DIRECTION ( 'NONE',  ( 8.034405899049450100E-017, 0.7547095802227722400, -0.6560590289905070500 ) ) ;
#184 = CARTESIAN_POINT ( 'NONE',  ( 2.143131898507868000E-017, 0.1250000000000000000, -0.1749999999999999900 ) ) ;
#185 = LINE ( 'NONE', #184, #267 ) ;
#186 = CARTESIAN_POINT ( 'NONE',  ( 0.0000000000000000000, 0.03527126423676120400, 0.0000000000000000000 ) ) ;
#187 = DIRECTION ( 'NONE',  ( 0.0000000000000000000, 0.0000000000000000000, 1.000000000000000000 ) ) ;
#188 = DIRECTION ( 'NONE',  ( -0.0000000000000000000, 1.000000000000000000, -0.0000000000000000000 ) ) ;
#189 = CARTESIAN_POINT ( 'NONE',  ( 0.0000000000000000000, 0.03527126423676120400, 0.0000000000000000000 ) ) ;
#190 = DIRECTION ( 'NONE',  ( 0.0000000000000000000, 0.0000000000000000000, 1.000000000000000000 ) ) ;
#191 = DIRECTION ( 'NONE',  ( -0.0000000000000000000, 1.000000000000000000, -0.0000000000000000000 ) ) ;
#192 = CARTESIAN_POINT ( 'NONE',  ( 0.0000000000000000000, 1.707404996040164500E-017, 0.0000000000000000000 ) ) ;
#193 = DIRECTION ( 'NONE',  ( 0.0000000000000000000, 0.0000000000000000000, 1.000000000000000000 ) ) ;
#194 = DIRECTION ( 'NONE',  ( -0.0000000000000000000, 1.000000000000000000, -0.0000000000000000000 ) ) ;
#195 = CARTESIAN_POINT ( 'NONE',  ( 0.0000000000000000000, 0.1250000000000000000, 0.0000000000000000000 ) ) ;
#196 = ORIENTED_EDGE ( 'NONE', *, *, #148, .T. ) ;
#197 = ORIENTED_EDGE ( 'NONE', *, *, #148, .F. ) ;
#198 = ORIENTED_EDGE ( 'NONE', *, *, #146, .T. ) ;
#199 = ORIENTED_EDGE ( 'NONE', *, *, #147, .T. ) ;
#200 = ORIENTED_EDGE ( 'NONE', *, *, #146, .F. ) ;
#201 = ORIENTED_EDGE ( 'NONE', *, *, #145, .T. ) ;
#202 = ORIENTED_EDGE ( 'NONE', *, *, #142, .T. ) ;
#203 = ORIENTED_EDGE ( 'NONE', *, *, #144, .T. ) ;
#204 = ORIENTED_EDGE ( 'NONE', *, *, #142, .F. ) ;
#205 = ORIENTED_EDGE ( 'NONE', *, *, #140, .F. ) ;
#206 = ORIENTED_EDGE ( 'NONE', *, *, #256, .T. ) ;
#207 = ORIENTED_EDGE ( 'NONE', *, *, #138, .T. ) ;
#208 = ORIENTED_EDGE ( 'NONE', *, *, #139, .F. ) ;
#209 = VERTEX_POINT ( 'NONE', #72 ) ;
#210 = ORIENTED_EDGE ( 'NONE', *, *, #145, .F. ) ;
#211 = ORIENTED_EDGE ( 'NONE', *, *, #255, .T. ) ;
#212 = ORIENTED_EDGE ( 'NONE', *, *, #139, .T. ) ;
#213 = ORIENTED_EDGE ( 'NONE', *, *, #141, .F. ) ;
#214 = ORIENTED_EDGE ( 'NONE', *, *, #143, .F. ) ;
#215 = VERTEX_POINT ( 'NONE', #71 ) ;
#216 = VERTEX_POINT ( 'NONE', #70 ) ;
#217 = VERTEX_POINT ( 'NONE', #69 ) ;
#218 = VERTEX_POINT ( 'NONE', #68 ) ;
#219 = VERTEX_POINT ( 'NONE', #67 ) ;
#220 = VERTEX_POINT ( 'NONE', #66 ) ;
#221 = VERTEX_POINT ( 'NONE', #65 ) ;
#222 = VERTEX_POINT ( 'NONE', #64 ) ;
#223 = VERTEX_POINT ( 'NONE', #63 ) ;
#224 = ORIENTED_EDGE ( 'NONE', *, *, #141, .T. ) ;
#225 = ORIENTED_EDGE ( 'NONE', *, *, #136, .F. ) ;
#226 = ORIENTED_EDGE ( 'NONE', *, *, #256, .F. ) ;
#227 = ORIENTED_EDGE ( 'NONE', *, *, #144, .F. ) ;
#228 = ORIENTED_EDGE ( 'NONE', *, *, #147, .F. ) ;
#229 = ORIENTED_EDGE ( 'NONE', *, *, #140, .T. ) ;
#230 = ORIENTED_EDGE ( 'NONE', *, *, #137, .T. ) ;
#231 = ORIENTED_EDGE ( 'NONE', *, *, #136, .T. ) ;
#232 = ORIENTED_EDGE ( 'NONE', *, *, #143, .T. ) ;
#233 = ORIENTED_EDGE ( 'NONE', *, *, #255, .F. ) ;
#234 = EDGE_LOOP ( 'NONE', ( #208, #207, #211, #247 ) ) ;
#235 = EDGE_LOOP ( 'NONE', ( #205, #206, #212, #213 ) ) ;
#236 = EDGE_LOOP ( 'NONE', ( #214, #202, #203, #210 ) ) ;
#237 = EDGE_LOOP ( 'NONE', ( #204, #200, #201, #199 ) ) ;
#238 = EDGE_LOOP ( 'NONE', ( #197, #233 ) ) ;
#239 = EDGE_LOOP ( 'NONE', ( #198, #232 ) ) ;
#240 = EDGE_LOOP ( 'NONE', ( #231, #229 ) ) ;
#241 = EDGE_LOOP ( 'NONE', ( #228, #227 ) ) ;
#242 = EDGE_LOOP ( 'NONE', ( #226, #225, #224, #230 ) ) ;
#243 = EDGE_LOOP ( 'NONE', ( #246, #245, #244, #196 ) ) ;
#244 = ORIENTED_EDGE ( 'NONE', *, *, #254, .T. ) ;
#245 = ORIENTED_EDGE ( 'NONE', *, *, #137, .F. ) ;
#246 = ORIENTED_EDGE ( 'NONE', *, *, #138, .F. ) ;
#247 = ORIENTED_EDGE ( 'NONE', *, *, #254, .F. ) ;
#248 = MANIFOLD_SOLID_BREP ( 'CSK for #10 Flat Head Machine Screw1', #265 ) ;
#249 = PRODUCT_DEFINITION_SHAPE ( 'NONE', 'NONE',  #164 ) ;
#250 = PRODUCT_DEFINITION_CONTEXT ( 'detailed design', #252, 'design' ) ;
#251 = APPLICATION_CONTEXT ( 'automotive_design' ) ;
#252 = APPLICATION_CONTEXT ( 'automotive_design' ) ;
#253 = CONICAL_SURFACE ( 'NONE', #273, 0.1749999999999999900, 0.7155849933176748900 ) ;
#254 = EDGE_CURVE ( 'NONE', #215, #209, #49, .T. ) ;
#255 = EDGE_CURVE ( 'NONE', #223, #209, #166, .T. ) ;
#256 = EDGE_CURVE ( 'NONE', #216, #222, #42, .T. ) ;
#257 = ADVANCED_FACE ( 'NONE', ( #113, #103 ), #43, .T. ) ;
#258 = ADVANCED_FACE ( 'NONE', ( #115, #105 ), #36, .F. ) ;
#259 = ADVANCED_FACE ( 'NONE', ( #97 ), #102, .F. ) ;
#260 = VECTOR ( 'NONE', #174, 39.37007874015748100 ) ;
#261 = AXIS2_PLACEMENT_3D ( 'NONE', #180, #179, #178 ) ;
#262 = AXIS2_PLACEMENT_3D ( 'NONE', #189, #188, #187 ) ;
#263 = CYLINDRICAL_SURFACE ( 'NONE', #128, 0.09699999999999998900 ) ;
#264 = FACE_OUTER_BOUND ( 'NONE', #243, .T. ) ;
#265 = CLOSED_SHELL ( 'NONE', ( #150, #149, #152, #151, #257, #258, #259, #135 ) ) ;
#266 = AXIS2_PLACEMENT_3D ( 'NONE', #186, #182, #181 ) ;
#267 = VECTOR ( 'NONE', #183, 39.37007874015748900 ) ;
#268 = AXIS2_PLACEMENT_3D ( 'NONE', #90, #89, #88 ) ;
#269 = AXIS2_PLACEMENT_3D ( 'NONE', #177, #24, #50 ) ;
#270 = AXIS2_PLACEMENT_3D ( 'NONE', #192, #191, #190 ) ;
#271 = AXIS2_PLACEMENT_3D ( 'NONE', #87, #86, #85 ) ;
#272 = VECTOR ( 'NONE', #25, 39.37007874015748100 ) ;
#273 = AXIS2_PLACEMENT_3D ( 'NONE', #195, #194, #193 ) ;
ENDSEC;
END-ISO-10303-21;
