ISO-10303-21;
HEADER;
FILE_DESCRIPTION (( 'STEP AP214' ),
    '1' );
FILE_NAME ('DH125F-FS-N42.step',
    '2012-04-20T20:57:12',
    ( '' ),
    ( '' ),
    'SwSTEP 2.0',
    'SolidWorks 2012',
    '' );
FILE_SCHEMA (( 'AUTOMOTIVE_DESIGN' ));
ENDSEC;

DATA;
#1 = CARTESIAN_POINT ( 'NONE',  ( 0.0000000000000000000, 0.0000000000000000000, 0.0000000000000000000 ) ) ;
#2 = APPLICATION_PROTOCOL_DEFINITION ( 'draft international standard', 'automotive_design', 1998, #224 ) ;
#3 = PRODUCT_CONTEXT ( 'NONE', #223, 'mechanical' ) ;
#4 = CARTESIAN_POINT ( 'NONE',  ( 4.592425496802575500E-017, 0.1250000000000000000, 0.3750000000000000600 ) ) ;
#5 =( NAMED_UNIT ( * ) SI_UNIT ( $, .STERADIAN. ) SOLID_ANGLE_UNIT ( ) );
#6 = CARTESIAN_POINT ( 'NONE',  ( 0.0000000000000000000, 0.0000000000000000000, -0.3750000000000000600 ) ) ;
#7 = CARTESIAN_POINT ( 'NONE',  ( 4.592425496802575500E-017, 0.0000000000000000000, 0.3750000000000000600 ) ) ;
#8 = CARTESIAN_POINT ( 'NONE',  ( 0.0000000000000000000, 0.1250000000000000000, -0.3750000000000000600 ) ) ;
#9 =( NAMED_UNIT ( * ) PLANE_ANGLE_UNIT ( ) SI_UNIT ( $, .RADIAN. ) );
#10 =( CONVERSION_BASED_UNIT ( 'INCH', #116 ) LENGTH_UNIT ( ) NAMED_UNIT ( #227 ) );
#11 =( LENGTH_UNIT ( ) NAMED_UNIT ( * ) SI_UNIT ( $, .METRE. ) );
#12 = SURFACE_SIDE_STYLE ('',( #15 ) ) ;
#13 = SURFACE_STYLE_USAGE ( .BOTH. , #12 ) ;
#14 = PRESENTATION_STYLE_ASSIGNMENT (( #13 ) ) ;
#15 = SURFACE_STYLE_FILL_AREA ( #16 ) ;
#16 = FILL_AREA_STYLE ('',( #17 ) ) ;
#17 = FILL_AREA_STYLE_COLOUR ( '', #246 ) ;
#18 = SHAPE_DEFINITION_REPRESENTATION ( #216, #220 ) ;
#19 = APPLICATION_PROTOCOL_DEFINITION ( 'draft international standard', 'automotive_design', 1998, #223 ) ;
#20 = FILL_AREA_STYLE_COLOUR ( '', #262 ) ;
#21 = DIRECTION ( 'NONE',  ( 0.0000000000000000000, 0.0000000000000000000, 1.000000000000000000 ) ) ;
#22 = DIRECTION ( 'NONE',  ( 1.000000000000000000, 0.0000000000000000000, 0.0000000000000000000 ) ) ;
#23 =( CONVERSION_BASED_UNIT ( 'INCH', #97 ) LENGTH_UNIT ( ) NAMED_UNIT ( #226 ) );
#24 =( NAMED_UNIT ( * ) PLANE_ANGLE_UNIT ( ) SI_UNIT ( $, .RADIAN. ) );
#25 =( LENGTH_UNIT ( ) NAMED_UNIT ( * ) SI_UNIT ( $, .METRE. ) );
#26 = DIRECTION ( 'NONE',  ( 0.0000000000000000000, 0.0000000000000000000, 1.000000000000000000 ) ) ;
#27 = DIRECTION ( 'NONE',  ( -0.0000000000000000000, 1.000000000000000000, -0.0000000000000000000 ) ) ;
#28 = CARTESIAN_POINT ( 'NONE',  ( 0.0000000000000000000, 0.1250000000000000000, 0.0000000000000000000 ) ) ;
#29 = DIRECTION ( 'NONE',  ( 0.0000000000000000000, 0.0000000000000000000, 1.000000000000000000 ) ) ;
#30 = DIRECTION ( 'NONE',  ( -0.0000000000000000000, 1.000000000000000000, -0.0000000000000000000 ) ) ;
#31 = CARTESIAN_POINT ( 'NONE',  ( 0.0000000000000000000, 0.1250000000000000000, 0.0000000000000000000 ) ) ;
#32 = DIRECTION ( 'NONE',  ( 0.0000000000000000000, 0.0000000000000000000, -1.000000000000000000 ) ) ;
#33 = DIRECTION ( 'NONE',  ( -0.0000000000000000000, -1.000000000000000000, -0.0000000000000000000 ) ) ;
#34 = CARTESIAN_POINT ( 'NONE',  ( 0.0000000000000000000, 0.1250000000000000000, 0.0000000000000000000 ) ) ;
#35 = DIRECTION ( 'NONE',  ( 0.0000000000000000000, 0.0000000000000000000, -1.000000000000000000 ) ) ;
#36 = DIRECTION ( 'NONE',  ( -0.0000000000000000000, -1.000000000000000000, -0.0000000000000000000 ) ) ;
#37 = CARTESIAN_POINT ( 'NONE',  ( 0.0000000000000000000, 0.1250000000000000000, 0.0000000000000000000 ) ) ;
#38 = DIRECTION ( 'NONE',  ( 0.0000000000000000000, 0.0000000000000000000, 1.000000000000000000 ) ) ;
#39 = DIRECTION ( 'NONE',  ( -0.0000000000000000000, 1.000000000000000000, -0.0000000000000000000 ) ) ;
#40 = CARTESIAN_POINT ( 'NONE',  ( 0.0000000000000000000, 0.03527126423676120400, 0.0000000000000000000 ) ) ;
#41 = DIRECTION ( 'NONE',  ( 0.0000000000000000000, 0.0000000000000000000, 1.000000000000000000 ) ) ;
#42 = CARTESIAN_POINT ( 'NONE',  ( 0.0000000000000000000, 0.1250000000000000000, 0.1749999999999999900 ) ) ;
#43 = DIRECTION ( 'NONE',  ( -0.0000000000000000000, 1.000000000000000000, -0.0000000000000000000 ) ) ;
#44 = CARTESIAN_POINT ( 'NONE',  ( 2.143131898507868000E-017, 0.1250000000000000000, -0.1749999999999999900 ) ) ;
#45 =( NAMED_UNIT ( * ) SI_UNIT ( $, .STERADIAN. ) SOLID_ANGLE_UNIT ( ) );
#46 = CARTESIAN_POINT ( 'NONE',  ( 0.0000000000000000000, 1.707404996040164500E-017, 0.0000000000000000000 ) ) ;
#47 = SURFACE_SIDE_STYLE ('',( #48 ) ) ;
#48 = SURFACE_STYLE_FILL_AREA ( #49 ) ;
#49 = FILL_AREA_STYLE ('',( #20 ) ) ;
#50 = DIRECTION ( 'NONE',  ( 0.0000000000000000000, 0.0000000000000000000, 1.000000000000000000 ) ) ;
#51 = DIRECTION ( 'NONE',  ( -0.0000000000000000000, 1.000000000000000000, -0.0000000000000000000 ) ) ;
#52 = CARTESIAN_POINT ( 'NONE',  ( 2.143131898507868000E-017, 0.1250000000000000000, -0.1749999999999999900 ) ) ;
#53 = DIRECTION ( 'NONE',  ( 0.0000000000000000000, -0.0000000000000000000, 1.000000000000000000 ) ) ;
#54 = CARTESIAN_POINT ( 'NONE',  ( 0.0000000000000000000, 0.03527126423676120400, 0.0000000000000000000 ) ) ;
#55 = DIRECTION ( 'NONE',  ( 0.0000000000000000000, 0.0000000000000000000, 1.000000000000000000 ) ) ;
#56 = DIRECTION ( 'NONE',  ( -0.0000000000000000000, 1.000000000000000000, -0.0000000000000000000 ) ) ;
#57 = DIRECTION ( 'NONE',  ( -0.0000000000000000000, 1.000000000000000000, -0.0000000000000000000 ) ) ;
#58 = DIRECTION ( 'NONE',  ( 8.034405899049450100E-017, 0.7547095802227722400, -0.6560590289905070500 ) ) ;
#59 = DIRECTION ( 'NONE',  ( 0.0000000000000000000, 0.0000000000000000000, 1.000000000000000000 ) ) ;
#60 = CARTESIAN_POINT ( 'NONE',  ( 0.0000000000000000000, 0.1250000000000000000, 0.0000000000000000000 ) ) ;
#61 = LINE ( 'NONE', #52, #111 ) ;
#62 = DIRECTION ( 'NONE',  ( 0.0000000000000000000, 1.000000000000000000, 0.0000000000000000000 ) ) ;
#63 = CARTESIAN_POINT ( 'NONE',  ( 0.0000000000000000000, 0.1250000000000000000, 0.0000000000000000000 ) ) ;
#64 = CARTESIAN_POINT ( 'NONE',  ( 0.0000000000000000000, 0.0000000000000000000, 0.0000000000000000000 ) ) ;
#65 = PLANE ( 'NONE',  #119 ) ;
#66 = DIRECTION ( 'NONE',  ( 0.0000000000000000000, -0.0000000000000000000, 1.000000000000000000 ) ) ;
#67 = DIRECTION ( 'NONE',  ( 0.0000000000000000000, 1.000000000000000000, 0.0000000000000000000 ) ) ;
#68 = CARTESIAN_POINT ( 'NONE',  ( 0.0000000000000000000, 0.1250000000000000000, 0.0000000000000000000 ) ) ;
#69 = PLANE ( 'NONE',  #131 ) ;
#70 = DIRECTION ( 'NONE',  ( 0.0000000000000000000, 0.0000000000000000000, 1.000000000000000000 ) ) ;
#71 = DIRECTION ( 'NONE',  ( 0.0000000000000000000, 1.000000000000000000, 0.0000000000000000000 ) ) ;
#72 = DIRECTION ( 'NONE',  ( -0.0000000000000000000, -1.000000000000000000, -0.0000000000000000000 ) ) ;
#73 = CARTESIAN_POINT ( 'NONE',  ( 4.592425496802575500E-017, 0.1250000000000000000, 0.3750000000000000600 ) ) ;
#74 = LINE ( 'NONE', #73, #127 ) ;
#75 = DIRECTION ( 'NONE',  ( -0.0000000000000000000, 1.000000000000000000, -0.0000000000000000000 ) ) ;
#76 = CARTESIAN_POINT ( 'NONE',  ( 0.0000000000000000000, 0.1250000000000000000, 0.09699999999999998900 ) ) ;
#77 = LINE ( 'NONE', #76, #129 ) ;
#78 = CARTESIAN_POINT ( 'NONE',  ( 0.0000000000000000000, 0.1250000000000000000, 0.0000000000000000000 ) ) ;
#79 = DIRECTION ( 'NONE',  ( 0.0000000000000000000, 0.0000000000000000000, 1.000000000000000000 ) ) ;
#80 = DIRECTION ( 'NONE',  ( -0.0000000000000000000, 1.000000000000000000, -0.0000000000000000000 ) ) ;
#81 = CARTESIAN_POINT ( 'NONE',  ( 0.0000000000000000000, 1.707404996040164500E-017, 0.0000000000000000000 ) ) ;
#82 = DIRECTION ( 'NONE',  ( 0.0000000000000000000, 0.0000000000000000000, 1.000000000000000000 ) ) ;
#83 = DIRECTION ( 'NONE',  ( -0.0000000000000000000, 1.000000000000000000, -0.0000000000000000000 ) ) ;
#84 = CARTESIAN_POINT ( 'NONE',  ( 0.0000000000000000000, 0.1250000000000000000, 0.0000000000000000000 ) ) ;
#85 = DIRECTION ( 'NONE',  ( 0.0000000000000000000, 0.0000000000000000000, 1.000000000000000000 ) ) ;
#86 = DIRECTION ( 'NONE',  ( 0.0000000000000000000, 1.000000000000000000, 0.0000000000000000000 ) ) ;
#87 = CARTESIAN_POINT ( 'NONE',  ( 0.0000000000000000000, 0.0000000000000000000, 0.0000000000000000000 ) ) ;
#88 =( NAMED_UNIT ( * ) SI_UNIT ( $, .STERADIAN. ) SOLID_ANGLE_UNIT ( ) );
#89 =( NAMED_UNIT ( * ) PLANE_ANGLE_UNIT ( ) SI_UNIT ( $, .RADIAN. ) );
#90 =( CONVERSION_BASED_UNIT ( 'INCH', #273 ) LENGTH_UNIT ( ) NAMED_UNIT ( #225 ) );
#91 =( LENGTH_UNIT ( ) NAMED_UNIT ( * ) SI_UNIT ( $, .METRE. ) );
#92 = PRESENTATION_STYLE_ASSIGNMENT (( #93 ) ) ;
#93 = SURFACE_STYLE_USAGE ( .BOTH. , #47 ) ;
#94 = AXIS2_PLACEMENT_3D ( 'NONE', #28, #27, #26 ) ;
#95 = PRESENTATION_LAYER_ASSIGNMENT (  '', '', ( #120 ) ) ;
#96 = PRODUCT_DEFINITION_FORMATION_WITH_SPECIFIED_SOURCE ( 'ANY', '', #228, .NOT_KNOWN. ) ;
#97 = LENGTH_MEASURE_WITH_UNIT ( LENGTH_MEASURE( 0.02539999999999999900 ), #25 );
#98 = CYLINDRICAL_SURFACE ( 'NONE', #99, 0.09699999999999998900 ) ;
#99 = AXIS2_PLACEMENT_3D ( 'NONE', #31, #30, #29 ) ;
#100 = FACE_OUTER_BOUND ( 'NONE', #187, .T. ) ;
#101 = CYLINDRICAL_SURFACE ( 'NONE', #102, 0.3750000000000000600 ) ;
#102 = AXIS2_PLACEMENT_3D ( 'NONE', #34, #33, #32 ) ;
#103 = AXIS2_PLACEMENT_3D ( 'NONE', #81, #80, #79 ) ;
#104 = MECHANICAL_DESIGN_GEOMETRIC_PRESENTATION_REPRESENTATION (  '', ( #120 ), #242 ) ;
#105 = FACE_OUTER_BOUND ( 'NONE', #188, .T. ) ;
#106 = AXIS2_PLACEMENT_3D ( 'NONE', #1, #21, #22 ) ;
#107 = CYLINDRICAL_SURFACE ( 'NONE', #109, 0.3750000000000000600 ) ;
#108 = FACE_OUTER_BOUND ( 'NONE', #189, .T. ) ;
#109 = AXIS2_PLACEMENT_3D ( 'NONE', #37, #36, #35 ) ;
#110 = FACE_OUTER_BOUND ( 'NONE', #190, .T. ) ;
#111 = VECTOR ( 'NONE', #58, 39.37007874015748900 ) ;
#112 = AXIS2_PLACEMENT_3D ( 'NONE', #54, #51, #50 ) ;
#113 = FACE_BOUND ( 'NONE', #191, .T. ) ;
#114 = AXIS2_PLACEMENT_3D ( 'NONE', #60, #57, #59 ) ;
#115 = AXIS2_PLACEMENT_3D ( 'NONE', #46, #43, #41 ) ;
#116 = LENGTH_MEASURE_WITH_UNIT ( LENGTH_MEASURE( 0.02539999999999999900 ), #11 );
#117 = AXIS2_PLACEMENT_3D ( 'NONE', #40, #39, #38 ) ;
#118 = CYLINDRICAL_SURFACE ( 'NONE', #123, 0.09699999999999998900 ) ;
#119 = AXIS2_PLACEMENT_3D ( 'NONE', #64, #62, #53 ) ;
#120 = STYLED_ITEM ( 'NONE', ( #14 ), #220 ) ;
#121 = FACE_OUTER_BOUND ( 'NONE', #195, .T. ) ;
#122 = AXIS2_PLACEMENT_3D ( 'NONE', #84, #83, #82 ) ;
#123 = AXIS2_PLACEMENT_3D ( 'NONE', #63, #56, #55 ) ;
#124 = FACE_OUTER_BOUND ( 'NONE', #196, .T. ) ;
#125 = FACE_BOUND ( 'NONE', #193, .T. ) ;
#126 = FACE_OUTER_BOUND ( 'NONE', #194, .T. ) ;
#127 = VECTOR ( 'NONE', #72, 39.37007874015748100 ) ;
#128 = FACE_OUTER_BOUND ( 'NONE', #192, .T. ) ;
#129 = VECTOR ( 'NONE', #75, 39.37007874015748100 ) ;
#130 = AXIS2_PLACEMENT_3D ( 'NONE', #78, #71, #70 ) ;
#131 = AXIS2_PLACEMENT_3D ( 'NONE', #68, #67, #66 ) ;
#132 = AXIS2_PLACEMENT_3D ( 'NONE', #87, #86, #85 ) ;
#133 =( GEOMETRIC_REPRESENTATION_CONTEXT ( 3 ) GLOBAL_UNCERTAINTY_ASSIGNED_CONTEXT ( ( #222 ) ) GLOBAL_UNIT_ASSIGNED_CONTEXT ( ( #90, #89, #88 ) ) REPRESENTATION_CONTEXT ( 'NONE', 'WORKASPACE' ) );
#134 =( GEOMETRIC_REPRESENTATION_CONTEXT ( 3 ) GLOBAL_UNCERTAINTY_ASSIGNED_CONTEXT ( ( #219 ) ) GLOBAL_UNIT_ASSIGNED_CONTEXT ( ( #23, #24, #45 ) ) REPRESENTATION_CONTEXT ( 'NONE', 'WORKASPACE' ) );
#135 = EDGE_CURVE ( 'NONE', #182, #181, #136, .T. ) ;
#136 = CIRCLE ( 'NONE', #269, 0.3750000000000000600 ) ;
#137 = EDGE_CURVE ( 'NONE', #179, #178, #159, .T. ) ;
#138 = EDGE_CURVE ( 'NONE', #177, #186, #156, .T. ) ;
#139 = EDGE_CURVE ( 'NONE', #185, #186, #255, .T. ) ;
#140 = EDGE_CURVE ( 'NONE', #183, #184, #256, .T. ) ;
#141 = EDGE_CURVE ( 'NONE', #182, #184, #147, .T. ) ;
#142 = CARTESIAN_POINT ( 'NONE',  ( 0.0000000000000000000, 1.707404996040164500E-017, 0.09699999999999998900 ) ) ;
#143 = CARTESIAN_POINT ( 'NONE',  ( 1.187907395172932400E-017, 1.707404996040164500E-017, -0.09699999999999998900 ) ) ;
#144 = CARTESIAN_POINT ( 'NONE',  ( 1.187907395172932400E-017, 0.03527126423676120400, -0.09699999999999998900 ) ) ;
#145 = DIRECTION ( 'NONE',  ( -0.0000000000000000000, -1.000000000000000000, -0.0000000000000000000 ) ) ;
#146 = CARTESIAN_POINT ( 'NONE',  ( 0.0000000000000000000, 0.1250000000000000000, -0.3750000000000000600 ) ) ;
#147 = LINE ( 'NONE', #146, #267 ) ;
#148 = CARTESIAN_POINT ( 'NONE',  ( 0.0000000000000000000, 0.03527126423676120400, 0.09699999999999998900 ) ) ;
#149 = DIRECTION ( 'NONE',  ( 0.0000000000000000000, 0.0000000000000000000, 1.000000000000000000 ) ) ;
#150 = DIRECTION ( 'NONE',  ( 0.0000000000000000000, 1.000000000000000000, 0.0000000000000000000 ) ) ;
#151 = CARTESIAN_POINT ( 'NONE',  ( 0.0000000000000000000, 0.0000000000000000000, 0.0000000000000000000 ) ) ;
#152 = DIRECTION ( 'NONE',  ( 0.0000000000000000000, 0.0000000000000000000, 1.000000000000000000 ) ) ;
#153 = DIRECTION ( 'NONE',  ( -0.0000000000000000000, 1.000000000000000000, -0.0000000000000000000 ) ) ;
#154 = DIRECTION ( 'NONE',  ( 0.0000000000000000000, 0.7547095802227722400, 0.6560590289905070500 ) ) ;
#155 = CARTESIAN_POINT ( 'NONE',  ( 0.0000000000000000000, 0.1250000000000000000, 0.1749999999999999900 ) ) ;
#156 = LINE ( 'NONE', #155, #271 ) ;
#157 = DIRECTION ( 'NONE',  ( -0.0000000000000000000, 1.000000000000000000, -0.0000000000000000000 ) ) ;
#158 = CARTESIAN_POINT ( 'NONE',  ( 1.187907395172932400E-017, 0.1250000000000000000, -0.09699999999999998900 ) ) ;
#159 = LINE ( 'NONE', #158, #266 ) ;
#160 = CARTESIAN_POINT ( 'NONE',  ( 0.0000000000000000000, 0.1250000000000000000, 0.0000000000000000000 ) ) ;
#161 = DIRECTION ( 'NONE',  ( 0.0000000000000000000, 0.0000000000000000000, 1.000000000000000000 ) ) ;
#162 = DIRECTION ( 'NONE',  ( 0.0000000000000000000, 1.000000000000000000, 0.0000000000000000000 ) ) ;
#163 = CARTESIAN_POINT ( 'NONE',  ( 0.0000000000000000000, 0.1250000000000000000, 0.0000000000000000000 ) ) ;
#164 = ORIENTED_EDGE ( 'NONE', *, *, #232, .T. ) ;
#165 = ORIENTED_EDGE ( 'NONE', *, *, #241, .F. ) ;
#166 = ORIENTED_EDGE ( 'NONE', *, *, #137, .F. ) ;
#167 = ORIENTED_EDGE ( 'NONE', *, *, #140, .F. ) ;
#168 = ORIENTED_EDGE ( 'NONE', *, *, #229, .F. ) ;
#169 = ORIENTED_EDGE ( 'NONE', *, *, #231, .T. ) ;
#170 = ORIENTED_EDGE ( 'NONE', *, *, #250, .T. ) ;
#171 = ORIENTED_EDGE ( 'NONE', *, *, #241, .T. ) ;
#172 = ORIENTED_EDGE ( 'NONE', *, *, #234, .T. ) ;
#173 = ORIENTED_EDGE ( 'NONE', *, *, #139, .F. ) ;
#174 = ORIENTED_EDGE ( 'NONE', *, *, #239, .T. ) ;
#175 = ORIENTED_EDGE ( 'NONE', *, *, #139, .T. ) ;
#176 = ORIENTED_EDGE ( 'NONE', *, *, #240, .F. ) ;
#177 = VERTEX_POINT ( 'NONE', #148 ) ;
#178 = VERTEX_POINT ( 'NONE', #144 ) ;
#179 = VERTEX_POINT ( 'NONE', #143 ) ;
#180 = VERTEX_POINT ( 'NONE', #142 ) ;
#181 = VERTEX_POINT ( 'NONE', #4 ) ;
#182 = VERTEX_POINT ( 'NONE', #8 ) ;
#183 = VERTEX_POINT ( 'NONE', #7 ) ;
#184 = VERTEX_POINT ( 'NONE', #6 ) ;
#185 = VERTEX_POINT ( 'NONE', #44 ) ;
#186 = VERTEX_POINT ( 'NONE', #42 ) ;
#187 = EDGE_LOOP ( 'NONE', ( #176, #174, #175, #215 ) ) ;
#188 = EDGE_LOOP ( 'NONE', ( #204, #202, #203, #201 ) ) ;
#189 = EDGE_LOOP ( 'NONE', ( #200, #198, #199, #197 ) ) ;
#190 = EDGE_LOOP ( 'NONE', ( #211, #209, #210, #208 ) ) ;
#191 = EDGE_LOOP ( 'NONE', ( #206, #173 ) ) ;
#192 = EDGE_LOOP ( 'NONE', ( #207, #172 ) ) ;
#193 = EDGE_LOOP ( 'NONE', ( #171, #169 ) ) ;
#194 = EDGE_LOOP ( 'NONE', ( #168, #167 ) ) ;
#195 = EDGE_LOOP ( 'NONE', ( #166, #165, #164, #170 ) ) ;
#196 = EDGE_LOOP ( 'NONE', ( #214, #213, #212, #205 ) ) ;
#197 = ORIENTED_EDGE ( 'NONE', *, *, #141, .F. ) ;
#198 = ORIENTED_EDGE ( 'NONE', *, *, #233, .T. ) ;
#199 = ORIENTED_EDGE ( 'NONE', *, *, #140, .T. ) ;
#200 = ORIENTED_EDGE ( 'NONE', *, *, #234, .F. ) ;
#201 = ORIENTED_EDGE ( 'NONE', *, *, #232, .F. ) ;
#202 = ORIENTED_EDGE ( 'NONE', *, *, #137, .T. ) ;
#203 = ORIENTED_EDGE ( 'NONE', *, *, #240, .T. ) ;
#204 = ORIENTED_EDGE ( 'NONE', *, *, #231, .F. ) ;
#205 = ORIENTED_EDGE ( 'NONE', *, *, #230, .T. ) ;
#206 = ORIENTED_EDGE ( 'NONE', *, *, #230, .F. ) ;
#207 = ORIENTED_EDGE ( 'NONE', *, *, #135, .T. ) ;
#208 = ORIENTED_EDGE ( 'NONE', *, *, #229, .T. ) ;
#209 = ORIENTED_EDGE ( 'NONE', *, *, #135, .F. ) ;
#210 = ORIENTED_EDGE ( 'NONE', *, *, #141, .T. ) ;
#211 = ORIENTED_EDGE ( 'NONE', *, *, #233, .F. ) ;
#212 = ORIENTED_EDGE ( 'NONE', *, *, #138, .T. ) ;
#213 = ORIENTED_EDGE ( 'NONE', *, *, #250, .F. ) ;
#214 = ORIENTED_EDGE ( 'NONE', *, *, #239, .F. ) ;
#215 = ORIENTED_EDGE ( 'NONE', *, *, #138, .F. ) ;
#216 = PRODUCT_DEFINITION_SHAPE ( 'NONE', 'NONE',  #248 ) ;
#217 = PRODUCT_DEFINITION_CONTEXT ( 'detailed design', #224, 'design' ) ;
#218 = MANIFOLD_SOLID_BREP ( 'CSK for #10 Flat Head Machine Screw1', #263 ) ;
#219 = UNCERTAINTY_MEASURE_WITH_UNIT (LENGTH_MEASURE( 1.000000000000000100E-005 ), #23, 'distance_accuracy_value', 'NONE');
#220 = ADVANCED_BREP_SHAPE_REPRESENTATION ( 'DH125F-FS-N42', ( #218, #106 ), #134 ) ;
#221 = UNCERTAINTY_MEASURE_WITH_UNIT (LENGTH_MEASURE( 1.000000000000000100E-005 ), #10, 'distance_accuracy_value', 'NONE');
#222 = UNCERTAINTY_MEASURE_WITH_UNIT (LENGTH_MEASURE( 1.000000000000000100E-005 ), #90, 'distance_accuracy_value', 'NONE');
#223 = APPLICATION_CONTEXT ( 'automotive_design' ) ;
#224 = APPLICATION_CONTEXT ( 'automotive_design' ) ;
#225 = DIMENSIONAL_EXPONENTS ( 1.000000000000000000, 0.0000000000000000000, 0.0000000000000000000, 0.0000000000000000000, 0.0000000000000000000, 0.0000000000000000000, 0.0000000000000000000 ) ;
#226 = DIMENSIONAL_EXPONENTS ( 1.000000000000000000, 0.0000000000000000000, 0.0000000000000000000, 0.0000000000000000000, 0.0000000000000000000, 0.0000000000000000000, 0.0000000000000000000 ) ;
#227 = DIMENSIONAL_EXPONENTS ( 1.000000000000000000, 0.0000000000000000000, 0.0000000000000000000, 0.0000000000000000000, 0.0000000000000000000, 0.0000000000000000000, 0.0000000000000000000 ) ;
#228 = PRODUCT ( 'DH125F-FS-N42', 'DH125F-FS-N42', '', ( #3 ) ) ;
#229 = EDGE_CURVE ( 'NONE', #184, #183, #261, .T. ) ;
#230 = EDGE_CURVE ( 'NONE', #186, #185, #257, .T. ) ;
#231 = EDGE_CURVE ( 'NONE', #179, #180, #258, .T. ) ;
#232 = EDGE_CURVE ( 'NONE', #180, #177, #77, .T. ) ;
#233 = EDGE_CURVE ( 'NONE', #181, #183, #74, .T. ) ;
#234 = EDGE_CURVE ( 'NONE', #181, #182, #259, .T. ) ;
#235 = ADVANCED_FACE ( 'NONE', ( #113, #128 ), #69, .T. ) ;
#236 = ADVANCED_FACE ( 'NONE', ( #125, #126 ), #65, .F. ) ;
#237 = ADVANCED_FACE ( 'NONE', ( #121 ), #118, .F. ) ;
#238 = ADVANCED_FACE ( 'NONE', ( #124 ), #260, .F. ) ;
#239 = EDGE_CURVE ( 'NONE', #178, #185, #61, .T. ) ;
#240 = EDGE_CURVE ( 'NONE', #178, #177, #243, .T. ) ;
#241 = EDGE_CURVE ( 'NONE', #180, #179, #244, .T. ) ;
#242 =( GEOMETRIC_REPRESENTATION_CONTEXT ( 3 ) GLOBAL_UNCERTAINTY_ASSIGNED_CONTEXT ( ( #221 ) ) GLOBAL_UNIT_ASSIGNED_CONTEXT ( ( #10, #9, #5 ) ) REPRESENTATION_CONTEXT ( 'NONE', 'WORKASPACE' ) );
#243 = CIRCLE ( 'NONE', #112, 0.09699999999999998900 ) ;
#244 = CIRCLE ( 'NONE', #115, 0.09699999999999998900 ) ;
#245 = CIRCLE ( 'NONE', #117, 0.09699999999999998900 ) ;
#246 = COLOUR_RGB ( '',0.5686274509803921400, 0.5686274509803921400, 0.5882352941176470800 ) ;
#247 = CONICAL_SURFACE ( 'NONE', #94, 0.1749999999999999900, 0.7155849933176748900 ) ;
#248 = PRODUCT_DEFINITION ( 'UNKNOWN', '', #96, #217 ) ;
#249 = PRODUCT_RELATED_PRODUCT_CATEGORY ( 'part', '', ( #228 ) ) ;
#250 = EDGE_CURVE ( 'NONE', #177, #178, #245, .T. ) ;
#251 = ADVANCED_FACE ( 'NONE', ( #110 ), #107, .T. ) ;
#252 = ADVANCED_FACE ( 'NONE', ( #108 ), #101, .T. ) ;
#253 = ADVANCED_FACE ( 'NONE', ( #105 ), #98, .F. ) ;
#254 = ADVANCED_FACE ( 'NONE', ( #100 ), #247, .F. ) ;
#255 = CIRCLE ( 'NONE', #268, 0.1749999999999999900 ) ;
#256 = CIRCLE ( 'NONE', #270, 0.3750000000000000600 ) ;
#257 = CIRCLE ( 'NONE', #122, 0.1749999999999999900 ) ;
#258 = CIRCLE ( 'NONE', #103, 0.09699999999999998900 ) ;
#259 = CIRCLE ( 'NONE', #130, 0.3750000000000000600 ) ;
#260 = CONICAL_SURFACE ( 'NONE', #114, 0.1749999999999999900, 0.7155849933176748900 ) ;
#261 = CIRCLE ( 'NONE', #132, 0.3750000000000000600 ) ;
#262 = COLOUR_RGB ( '',0.5686274509803921400, 0.5686274509803921400, 0.5882352941176470800 ) ;
#263 = CLOSED_SHELL ( 'NONE', ( #254, #253, #252, #251, #235, #236, #237, #238 ) ) ;
#264 = STYLED_ITEM ( 'NONE', ( #92 ), #218 ) ;
#265 = MECHANICAL_DESIGN_GEOMETRIC_PRESENTATION_REPRESENTATION (  '', ( #264 ), #133 ) ;
#266 = VECTOR ( 'NONE', #157, 39.37007874015748100 ) ;
#267 = VECTOR ( 'NONE', #145, 39.37007874015748100 ) ;
#268 = AXIS2_PLACEMENT_3D ( 'NONE', #160, #153, #152 ) ;
#269 = AXIS2_PLACEMENT_3D ( 'NONE', #163, #162, #161 ) ;
#270 = AXIS2_PLACEMENT_3D ( 'NONE', #151, #150, #149 ) ;
#271 = VECTOR ( 'NONE', #154, 39.37007874015748900 ) ;
#272 = PRESENTATION_LAYER_ASSIGNMENT (  '', '', ( #264 ) ) ;
#273 = LENGTH_MEASURE_WITH_UNIT ( LENGTH_MEASURE( 0.02539999999999999900 ), #91 );
ENDSEC;
END-ISO-10303-21;
