ISO-10303-21;
HEADER;
FILE_DESCRIPTION (( 'STEP AP214' ),
    '1' );
FILE_NAME ('DH250DN45.step',
    '2012-04-20T23:14:14',
    ( '' ),
    ( '' ),
    'SwSTEP 2.0',
    'SolidWorks 2012',
    '' );
FILE_SCHEMA (( 'AUTOMOTIVE_DESIGN' ));
ENDSEC;

DATA;
#1 =( GEOMETRIC_REPRESENTATION_CONTEXT ( 3 ) GLOBAL_UNCERTAINTY_ASSIGNED_CONTEXT ( ( #5 ) ) GLOBAL_UNIT_ASSIGNED_CONTEXT ( ( #129, #128, #126 ) ) REPRESENTATION_CONTEXT ( 'NONE', 'WORKASPACE' ) );
#2 = UNCERTAINTY_MEASURE_WITH_UNIT (LENGTH_MEASURE( 1.000000000000000100E-005 ), #113, 'distance_accuracy_value', 'NONE');
#3 = ADVANCED_BREP_SHAPE_REPRESENTATION ( 'DH250DN45', ( #35, #97 ), #70 ) ;
#4 = UNCERTAINTY_MEASURE_WITH_UNIT (LENGTH_MEASURE( 1.000000000000000100E-005 ), #138, 'distance_accuracy_value', 'NONE');
#5 = UNCERTAINTY_MEASURE_WITH_UNIT (LENGTH_MEASURE( 1.000000000000000100E-005 ), #129, 'distance_accuracy_value', 'NONE');
#6 = EDGE_CURVE ( 'NONE', #212, #214, #197, .T. ) ;
#7 = EDGE_CURVE ( 'NONE', #212, #210, #38, .T. ) ;
#8 = EDGE_CURVE ( 'NONE', #208, #207, #24, .T. ) ;
#9 = EDGE_CURVE ( 'NONE', #214, #213, #25, .T. ) ;
#10 = ADVANCED_FACE ( 'NONE', ( #49, #42 ), #184, .F. ) ;
#11 = ADVANCED_FACE ( 'NONE', ( #45 ), #46, .T. ) ;
#12 = ADVANCED_FACE ( 'NONE', ( #39 ), #83, .T. ) ;
#13 = ADVANCED_FACE ( 'NONE', ( #50, #76 ), #174, .T. ) ;
#14 = ADVANCED_FACE ( 'NONE', ( #85 ), #43, .F. ) ;
#15 = EDGE_CURVE ( 'NONE', #208, #209, #167, .T. ) ;
#16 = EDGE_CURVE ( 'NONE', #207, #208, #27, .T. ) ;
#17 = EDGE_CURVE ( 'NONE', #209, #211, #26, .T. ) ;
#18 = EDGE_CURVE ( 'NONE', #211, #209, #28, .T. ) ;
#19 = EDGE_CURVE ( 'NONE', #207, #211, #152, .T. ) ;
#20 = EDGE_CURVE ( 'NONE', #210, #213, #149, .T. ) ;
#21 = EDGE_CURVE ( 'NONE', #210, #212, #29, .T. ) ;
#22 = EDGE_CURVE ( 'NONE', #213, #214, #30, .T. ) ;
#23 = ADVANCED_FACE ( 'NONE', ( #75 ), #80, .F. ) ;
#24 = CIRCLE ( 'NONE', #47, 0.06749999999999999100 ) ;
#25 = CIRCLE ( 'NONE', #48, 0.2500000000000000000 ) ;
#26 = CIRCLE ( 'NONE', #86, 0.06749999999999999100 ) ;
#27 = CIRCLE ( 'NONE', #87, 0.06749999999999999100 ) ;
#28 = CIRCLE ( 'NONE', #72, 0.06749999999999999100 ) ;
#29 = CIRCLE ( 'NONE', #73, 0.2500000000000000000 ) ;
#30 = CIRCLE ( 'NONE', #81, 0.2500000000000000000 ) ;
#31 = COLOUR_RGB ( '',0.5686274509803921400, 0.5686274509803921400, 0.5882352941176470800 ) ;
#32 = PRODUCT_DEFINITION ( 'UNKNOWN', '', #96, #37 ) ;
#33 = COLOUR_RGB ( '',0.5686274509803921400, 0.5686274509803921400, 0.5882352941176470800 ) ;
#34 = PRODUCT_RELATED_PRODUCT_CATEGORY ( 'part', '', ( #95 ) ) ;
#35 = MANIFOLD_SOLID_BREP ( 'Boss-Extrude1', #52 ) ;
#36 = PRODUCT_DEFINITION_SHAPE ( 'NONE', 'NONE',  #32 ) ;
#37 = PRODUCT_DEFINITION_CONTEXT ( 'detailed design', #91, 'design' ) ;
#38 = CIRCLE ( 'NONE', #41, 0.2500000000000000000 ) ;
#39 = FACE_OUTER_BOUND ( 'NONE', #61, .T. ) ;
#40 = VECTOR ( 'NONE', #199, 39.37007874015748100 ) ;
#41 = AXIS2_PLACEMENT_3D ( 'NONE', #194, #195, #196 ) ;
#42 = FACE_BOUND ( 'NONE', #58, .T. ) ;
#43 = CYLINDRICAL_SURFACE ( 'NONE', #44, 0.06749999999999999100 ) ;
#44 = AXIS2_PLACEMENT_3D ( 'NONE', #170, #169, #168 ) ;
#45 = FACE_OUTER_BOUND ( 'NONE', #57, .T. ) ;
#46 = CYLINDRICAL_SURFACE ( 'NONE', #51, 0.2500000000000000000 ) ;
#47 = AXIS2_PLACEMENT_3D ( 'NONE', #190, #189, #188 ) ;
#48 = AXIS2_PLACEMENT_3D ( 'NONE', #187, #186, #185 ) ;
#49 = FACE_OUTER_BOUND ( 'NONE', #60, .T. ) ;
#50 = FACE_OUTER_BOUND ( 'NONE', #55, .T. ) ;
#51 = AXIS2_PLACEMENT_3D ( 'NONE', #180, #179, #178 ) ;
#52 = CLOSED_SHELL ( 'NONE', ( #14, #11, #13, #10, #12, #23 ) ) ;
#53 = AXIS2_PLACEMENT_3D ( 'NONE', #183, #182, #181 ) ;
#54 = ORIENTED_EDGE ( 'NONE', *, *, #16, .T. ) ;
#55 = EDGE_LOOP ( 'NONE', ( #69, #66 ) ) ;
#56 = EDGE_LOOP ( 'NONE', ( #54, #203, #206, #204 ) ) ;
#57 = EDGE_LOOP ( 'NONE', ( #205, #202, #200, #201 ) ) ;
#58 = EDGE_LOOP ( 'NONE', ( #65, #223 ) ) ;
#59 = EDGE_LOOP ( 'NONE', ( #68, #64 ) ) ;
#60 = EDGE_LOOP ( 'NONE', ( #67, #63 ) ) ;
#61 = EDGE_LOOP ( 'NONE', ( #221, #220, #219, #222 ) ) ;
#62 = EDGE_LOOP ( 'NONE', ( #217, #216, #215, #218 ) ) ;
#63 = ORIENTED_EDGE ( 'NONE', *, *, #22, .F. ) ;
#64 = ORIENTED_EDGE ( 'NONE', *, *, #8, .F. ) ;
#65 = ORIENTED_EDGE ( 'NONE', *, *, #18, .T. ) ;
#66 = ORIENTED_EDGE ( 'NONE', *, *, #21, .T. ) ;
#67 = ORIENTED_EDGE ( 'NONE', *, *, #9, .F. ) ;
#68 = ORIENTED_EDGE ( 'NONE', *, *, #16, .F. ) ;
#69 = ORIENTED_EDGE ( 'NONE', *, *, #7, .T. ) ;
#70 =( GEOMETRIC_REPRESENTATION_CONTEXT ( 3 ) GLOBAL_UNCERTAINTY_ASSIGNED_CONTEXT ( ( #4 ) ) GLOBAL_UNIT_ASSIGNED_CONTEXT ( ( #138, #125, #122 ) ) REPRESENTATION_CONTEXT ( 'NONE', 'WORKASPACE' ) );
#71 =( GEOMETRIC_REPRESENTATION_CONTEXT ( 3 ) GLOBAL_UNCERTAINTY_ASSIGNED_CONTEXT ( ( #2 ) ) GLOBAL_UNIT_ASSIGNED_CONTEXT ( ( #113, #112, #111 ) ) REPRESENTATION_CONTEXT ( 'NONE', 'WORKASPACE' ) );
#72 = AXIS2_PLACEMENT_3D ( 'NONE', #158, #157, #156 ) ;
#73 = AXIS2_PLACEMENT_3D ( 'NONE', #155, #146, #147 ) ;
#74 = VECTOR ( 'NONE', #150, 39.37007874015748100 ) ;
#75 = FACE_OUTER_BOUND ( 'NONE', #62, .T. ) ;
#76 = FACE_BOUND ( 'NONE', #59, .T. ) ;
#77 = STYLED_ITEM ( 'NONE', ( #131 ), #35 ) ;
#78 = VECTOR ( 'NONE', #154, 39.37007874015748100 ) ;
#79 = VECTOR ( 'NONE', #165, 39.37007874015748100 ) ;
#80 = CYLINDRICAL_SURFACE ( 'NONE', #89, 0.06749999999999999100 ) ;
#81 = AXIS2_PLACEMENT_3D ( 'NONE', #148, #143, #144 ) ;
#82 = AXIS2_PLACEMENT_3D ( 'NONE', #173, #172, #171 ) ;
#83 = CYLINDRICAL_SURFACE ( 'NONE', #88, 0.2500000000000000000 ) ;
#84 = PRESENTATION_LAYER_ASSIGNMENT (  '', '', ( #77 ) ) ;
#85 = FACE_OUTER_BOUND ( 'NONE', #56, .T. ) ;
#86 = AXIS2_PLACEMENT_3D ( 'NONE', #161, #160, #159 ) ;
#87 = AXIS2_PLACEMENT_3D ( 'NONE', #164, #163, #162 ) ;
#88 = AXIS2_PLACEMENT_3D ( 'NONE', #177, #176, #175 ) ;
#89 = AXIS2_PLACEMENT_3D ( 'NONE', #145, #139, #137 ) ;
#90 = APPLICATION_CONTEXT ( 'automotive_design' ) ;
#91 = APPLICATION_CONTEXT ( 'automotive_design' ) ;
#92 = DIMENSIONAL_EXPONENTS ( 1.000000000000000000, 0.0000000000000000000, 0.0000000000000000000, 0.0000000000000000000, 0.0000000000000000000, 0.0000000000000000000, 0.0000000000000000000 ) ;
#93 = DIMENSIONAL_EXPONENTS ( 1.000000000000000000, 0.0000000000000000000, 0.0000000000000000000, 0.0000000000000000000, 0.0000000000000000000, 0.0000000000000000000, 0.0000000000000000000 ) ;
#94 = DIMENSIONAL_EXPONENTS ( 1.000000000000000000, 0.0000000000000000000, 0.0000000000000000000, 0.0000000000000000000, 0.0000000000000000000, 0.0000000000000000000, 0.0000000000000000000 ) ;
#95 = PRODUCT ( 'DH250DN45', 'DH250DN45', '', ( #106 ) ) ;
#96 = PRODUCT_DEFINITION_FORMATION_WITH_SPECIFIED_SOURCE ( 'ANY', '', #95, .NOT_KNOWN. ) ;
#97 = AXIS2_PLACEMENT_3D ( 'NONE', #110, #109, #108 ) ;
#98 = LENGTH_MEASURE_WITH_UNIT ( LENGTH_MEASURE( 0.02539999999999999900 ), #114 );
#99 = MECHANICAL_DESIGN_GEOMETRIC_PRESENTATION_REPRESENTATION (  '', ( #77 ), #1 ) ;
#100 = LENGTH_MEASURE_WITH_UNIT ( LENGTH_MEASURE( 0.02539999999999999900 ), #130 );
#101 = MECHANICAL_DESIGN_GEOMETRIC_PRESENTATION_REPRESENTATION (  '', ( #104 ), #71 ) ;
#102 = LENGTH_MEASURE_WITH_UNIT ( LENGTH_MEASURE( 0.02539999999999999900 ), #127 );
#103 = PRESENTATION_LAYER_ASSIGNMENT (  '', '', ( #104 ) ) ;
#104 = STYLED_ITEM ( 'NONE', ( #116 ), #3 ) ;
#105 = APPLICATION_PROTOCOL_DEFINITION ( 'draft international standard', 'automotive_design', 1998, #91 ) ;
#106 = PRODUCT_CONTEXT ( 'NONE', #90, 'mechanical' ) ;
#107 = SHAPE_DEFINITION_REPRESENTATION ( #36, #3 ) ;
#108 = DIRECTION ( 'NONE',  ( 1.000000000000000000, 0.0000000000000000000, 0.0000000000000000000 ) ) ;
#109 = DIRECTION ( 'NONE',  ( 0.0000000000000000000, 0.0000000000000000000, 1.000000000000000000 ) ) ;
#110 = CARTESIAN_POINT ( 'NONE',  ( 0.0000000000000000000, 0.0000000000000000000, 0.0000000000000000000 ) ) ;
#111 =( NAMED_UNIT ( * ) SI_UNIT ( $, .STERADIAN. ) SOLID_ANGLE_UNIT ( ) );
#112 =( NAMED_UNIT ( * ) PLANE_ANGLE_UNIT ( ) SI_UNIT ( $, .RADIAN. ) );
#113 =( CONVERSION_BASED_UNIT ( 'INCH', #98 ) LENGTH_UNIT ( ) NAMED_UNIT ( #94 ) );
#114 =( LENGTH_UNIT ( ) NAMED_UNIT ( * ) SI_UNIT ( $, .METRE. ) );
#115 = SURFACE_STYLE_USAGE ( .BOTH. , #117 ) ;
#116 = PRESENTATION_STYLE_ASSIGNMENT (( #115 ) ) ;
#117 = SURFACE_SIDE_STYLE ('',( #118 ) ) ;
#118 = SURFACE_STYLE_FILL_AREA ( #119 ) ;
#119 = FILL_AREA_STYLE ('',( #120 ) ) ;
#120 = FILL_AREA_STYLE_COLOUR ( '', #33 ) ;
#121 = APPLICATION_PROTOCOL_DEFINITION ( 'draft international standard', 'automotive_design', 1998, #90 ) ;
#122 =( NAMED_UNIT ( * ) SI_UNIT ( $, .STERADIAN. ) SOLID_ANGLE_UNIT ( ) );
#123 = CARTESIAN_POINT ( 'NONE',  ( 0.06749999999999999100, 8.266365894244634300E-018, 0.2500000000000000000 ) ) ;
#124 = CARTESIAN_POINT ( 'NONE',  ( -0.06749999999999999100, 0.0000000000000000000, 0.2500000000000000000 ) ) ;
#125 =( NAMED_UNIT ( * ) PLANE_ANGLE_UNIT ( ) SI_UNIT ( $, .RADIAN. ) );
#126 =( NAMED_UNIT ( * ) SI_UNIT ( $, .STERADIAN. ) SOLID_ANGLE_UNIT ( ) );
#127 =( LENGTH_UNIT ( ) NAMED_UNIT ( * ) SI_UNIT ( $, .METRE. ) );
#128 =( NAMED_UNIT ( * ) PLANE_ANGLE_UNIT ( ) SI_UNIT ( $, .RADIAN. ) );
#129 =( CONVERSION_BASED_UNIT ( 'INCH', #100 ) LENGTH_UNIT ( ) NAMED_UNIT ( #93 ) );
#130 =( LENGTH_UNIT ( ) NAMED_UNIT ( * ) SI_UNIT ( $, .METRE. ) );
#131 = PRESENTATION_STYLE_ASSIGNMENT (( #132 ) ) ;
#132 = SURFACE_STYLE_USAGE ( .BOTH. , #133 ) ;
#133 = SURFACE_SIDE_STYLE ('',( #134 ) ) ;
#134 = SURFACE_STYLE_FILL_AREA ( #135 ) ;
#135 = FILL_AREA_STYLE ('',( #136 ) ) ;
#136 = FILL_AREA_STYLE_COLOUR ( '', #31 ) ;
#137 = DIRECTION ( 'NONE',  ( -1.000000000000000000, 0.0000000000000000000, 0.0000000000000000000 ) ) ;
#138 =( CONVERSION_BASED_UNIT ( 'INCH', #102 ) LENGTH_UNIT ( ) NAMED_UNIT ( #92 ) );
#139 = DIRECTION ( 'NONE',  ( -0.0000000000000000000, -0.0000000000000000000, -1.000000000000000000 ) ) ;
#140 = CARTESIAN_POINT ( 'NONE',  ( -0.06749999999999999100, 0.0000000000000000000, 0.0000000000000000000 ) ) ;
#141 = CARTESIAN_POINT ( 'NONE',  ( 0.2500000000000000000, 3.061616997868383000E-017, 0.2500000000000000000 ) ) ;
#142 = CARTESIAN_POINT ( 'NONE',  ( 0.06749999999999999100, 8.266365894244634300E-018, 0.0000000000000000000 ) ) ;
#143 = DIRECTION ( 'NONE',  ( 0.0000000000000000000, 0.0000000000000000000, 1.000000000000000000 ) ) ;
#144 = DIRECTION ( 'NONE',  ( 1.000000000000000000, 0.0000000000000000000, 0.0000000000000000000 ) ) ;
#145 = CARTESIAN_POINT ( 'NONE',  ( 0.0000000000000000000, 0.0000000000000000000, 0.2500000000000000000 ) ) ;
#146 = DIRECTION ( 'NONE',  ( 0.0000000000000000000, 0.0000000000000000000, 1.000000000000000000 ) ) ;
#147 = DIRECTION ( 'NONE',  ( 1.000000000000000000, 0.0000000000000000000, 0.0000000000000000000 ) ) ;
#148 = CARTESIAN_POINT ( 'NONE',  ( 0.0000000000000000000, 0.0000000000000000000, 0.0000000000000000000 ) ) ;
#149 = LINE ( 'NONE', #151, #74 ) ;
#150 = DIRECTION ( 'NONE',  ( -0.0000000000000000000, -0.0000000000000000000, -1.000000000000000000 ) ) ;
#151 = CARTESIAN_POINT ( 'NONE',  ( 0.2500000000000000000, 3.061616997868383000E-017, 0.2500000000000000000 ) ) ;
#152 = LINE ( 'NONE', #153, #78 ) ;
#153 = CARTESIAN_POINT ( 'NONE',  ( -0.06749999999999999100, 0.0000000000000000000, 0.2500000000000000000 ) ) ;
#154 = DIRECTION ( 'NONE',  ( -0.0000000000000000000, -0.0000000000000000000, -1.000000000000000000 ) ) ;
#155 = CARTESIAN_POINT ( 'NONE',  ( 0.0000000000000000000, 0.0000000000000000000, 0.2500000000000000000 ) ) ;
#156 = DIRECTION ( 'NONE',  ( 1.000000000000000000, 0.0000000000000000000, 0.0000000000000000000 ) ) ;
#157 = DIRECTION ( 'NONE',  ( 0.0000000000000000000, 0.0000000000000000000, 1.000000000000000000 ) ) ;
#158 = CARTESIAN_POINT ( 'NONE',  ( 0.0000000000000000000, 0.0000000000000000000, 0.0000000000000000000 ) ) ;
#159 = DIRECTION ( 'NONE',  ( 1.000000000000000000, 0.0000000000000000000, 0.0000000000000000000 ) ) ;
#160 = DIRECTION ( 'NONE',  ( 0.0000000000000000000, 0.0000000000000000000, 1.000000000000000000 ) ) ;
#161 = CARTESIAN_POINT ( 'NONE',  ( 0.0000000000000000000, 0.0000000000000000000, 0.0000000000000000000 ) ) ;
#162 = DIRECTION ( 'NONE',  ( 1.000000000000000000, 0.0000000000000000000, 0.0000000000000000000 ) ) ;
#163 = DIRECTION ( 'NONE',  ( 0.0000000000000000000, 0.0000000000000000000, 1.000000000000000000 ) ) ;
#164 = CARTESIAN_POINT ( 'NONE',  ( 0.0000000000000000000, 0.0000000000000000000, 0.2500000000000000000 ) ) ;
#165 = DIRECTION ( 'NONE',  ( -0.0000000000000000000, -0.0000000000000000000, -1.000000000000000000 ) ) ;
#166 = CARTESIAN_POINT ( 'NONE',  ( 0.06749999999999999100, 8.266365894244634300E-018, 0.2500000000000000000 ) ) ;
#167 = LINE ( 'NONE', #166, #79 ) ;
#168 = DIRECTION ( 'NONE',  ( -1.000000000000000000, 0.0000000000000000000, 0.0000000000000000000 ) ) ;
#169 = DIRECTION ( 'NONE',  ( -0.0000000000000000000, -0.0000000000000000000, -1.000000000000000000 ) ) ;
#170 = CARTESIAN_POINT ( 'NONE',  ( 0.0000000000000000000, 0.0000000000000000000, 0.2500000000000000000 ) ) ;
#171 = DIRECTION ( 'NONE',  ( 1.000000000000000000, 0.0000000000000000000, -0.0000000000000000000 ) ) ;
#172 = DIRECTION ( 'NONE',  ( 0.0000000000000000000, 0.0000000000000000000, 1.000000000000000000 ) ) ;
#173 = CARTESIAN_POINT ( 'NONE',  ( 0.0000000000000000000, 0.0000000000000000000, 0.2500000000000000000 ) ) ;
#174 = PLANE ( 'NONE',  #82 ) ;
#175 = DIRECTION ( 'NONE',  ( -1.000000000000000000, 0.0000000000000000000, 0.0000000000000000000 ) ) ;
#176 = DIRECTION ( 'NONE',  ( -0.0000000000000000000, -0.0000000000000000000, -1.000000000000000000 ) ) ;
#177 = CARTESIAN_POINT ( 'NONE',  ( 0.0000000000000000000, 0.0000000000000000000, 0.2500000000000000000 ) ) ;
#178 = DIRECTION ( 'NONE',  ( -1.000000000000000000, 0.0000000000000000000, 0.0000000000000000000 ) ) ;
#179 = DIRECTION ( 'NONE',  ( -0.0000000000000000000, -0.0000000000000000000, -1.000000000000000000 ) ) ;
#180 = CARTESIAN_POINT ( 'NONE',  ( 0.0000000000000000000, 0.0000000000000000000, 0.2500000000000000000 ) ) ;
#181 = DIRECTION ( 'NONE',  ( 1.000000000000000000, 0.0000000000000000000, -0.0000000000000000000 ) ) ;
#182 = DIRECTION ( 'NONE',  ( 0.0000000000000000000, 0.0000000000000000000, 1.000000000000000000 ) ) ;
#183 = CARTESIAN_POINT ( 'NONE',  ( 0.0000000000000000000, 0.0000000000000000000, 0.0000000000000000000 ) ) ;
#184 = PLANE ( 'NONE',  #53 ) ;
#185 = DIRECTION ( 'NONE',  ( 1.000000000000000000, 0.0000000000000000000, 0.0000000000000000000 ) ) ;
#186 = DIRECTION ( 'NONE',  ( 0.0000000000000000000, 0.0000000000000000000, 1.000000000000000000 ) ) ;
#187 = CARTESIAN_POINT ( 'NONE',  ( 0.0000000000000000000, 0.0000000000000000000, 0.0000000000000000000 ) ) ;
#188 = DIRECTION ( 'NONE',  ( 1.000000000000000000, 0.0000000000000000000, 0.0000000000000000000 ) ) ;
#189 = DIRECTION ( 'NONE',  ( 0.0000000000000000000, 0.0000000000000000000, 1.000000000000000000 ) ) ;
#190 = CARTESIAN_POINT ( 'NONE',  ( 0.0000000000000000000, 0.0000000000000000000, 0.2500000000000000000 ) ) ;
#191 = CARTESIAN_POINT ( 'NONE',  ( -0.2500000000000000000, 0.0000000000000000000, 0.0000000000000000000 ) ) ;
#192 = CARTESIAN_POINT ( 'NONE',  ( 0.2500000000000000000, 3.061616997868383000E-017, 0.0000000000000000000 ) ) ;
#193 = CARTESIAN_POINT ( 'NONE',  ( -0.2500000000000000000, 0.0000000000000000000, 0.2500000000000000000 ) ) ;
#194 = CARTESIAN_POINT ( 'NONE',  ( 0.0000000000000000000, 0.0000000000000000000, 0.2500000000000000000 ) ) ;
#195 = DIRECTION ( 'NONE',  ( 0.0000000000000000000, 0.0000000000000000000, 1.000000000000000000 ) ) ;
#196 = DIRECTION ( 'NONE',  ( 1.000000000000000000, 0.0000000000000000000, 0.0000000000000000000 ) ) ;
#197 = LINE ( 'NONE', #198, #40 ) ;
#198 = CARTESIAN_POINT ( 'NONE',  ( -0.2500000000000000000, 0.0000000000000000000, 0.2500000000000000000 ) ) ;
#199 = DIRECTION ( 'NONE',  ( -0.0000000000000000000, -0.0000000000000000000, -1.000000000000000000 ) ) ;
#200 = ORIENTED_EDGE ( 'NONE', *, *, #22, .T. ) ;
#201 = ORIENTED_EDGE ( 'NONE', *, *, #6, .F. ) ;
#202 = ORIENTED_EDGE ( 'NONE', *, *, #20, .T. ) ;
#203 = ORIENTED_EDGE ( 'NONE', *, *, #15, .T. ) ;
#204 = ORIENTED_EDGE ( 'NONE', *, *, #19, .F. ) ;
#205 = ORIENTED_EDGE ( 'NONE', *, *, #21, .F. ) ;
#206 = ORIENTED_EDGE ( 'NONE', *, *, #18, .F. ) ;
#207 = VERTEX_POINT ( 'NONE', #124 ) ;
#208 = VERTEX_POINT ( 'NONE', #123 ) ;
#209 = VERTEX_POINT ( 'NONE', #142 ) ;
#210 = VERTEX_POINT ( 'NONE', #141 ) ;
#211 = VERTEX_POINT ( 'NONE', #140 ) ;
#212 = VERTEX_POINT ( 'NONE', #193 ) ;
#213 = VERTEX_POINT ( 'NONE', #192 ) ;
#214 = VERTEX_POINT ( 'NONE', #191 ) ;
#215 = ORIENTED_EDGE ( 'NONE', *, *, #19, .T. ) ;
#216 = ORIENTED_EDGE ( 'NONE', *, *, #8, .T. ) ;
#217 = ORIENTED_EDGE ( 'NONE', *, *, #15, .F. ) ;
#218 = ORIENTED_EDGE ( 'NONE', *, *, #17, .F. ) ;
#219 = ORIENTED_EDGE ( 'NONE', *, *, #6, .T. ) ;
#220 = ORIENTED_EDGE ( 'NONE', *, *, #7, .F. ) ;
#221 = ORIENTED_EDGE ( 'NONE', *, *, #20, .F. ) ;
#222 = ORIENTED_EDGE ( 'NONE', *, *, #9, .T. ) ;
#223 = ORIENTED_EDGE ( 'NONE', *, *, #17, .T. ) ;
ENDSEC;
END-ISO-10303-21;
