ISO-10303-21;
HEADER;
FILE_DESCRIPTION (( 'STEP AP214' ),
    '1' );
FILE_NAME ('DH500H-FN.step',
    '2012-04-20T20:57:35',
    ( '' ),
    ( '' ),
    'SwSTEP 2.0',
    'SolidWorks 2012',
    '' );
FILE_SCHEMA (( 'AUTOMOTIVE_DESIGN' ));
ENDSEC;

DATA;
#1 = ADVANCED_BREP_SHAPE_REPRESENTATION ( 'DH500H-FN', ( #249, #134 ), #268 ) ;
#2 = UNCERTAINTY_MEASURE_WITH_UNIT (LENGTH_MEASURE( 1.000000000000000100E-005 ), #18, 'distance_accuracy_value', 'NONE');
#3 = UNCERTAINTY_MEASURE_WITH_UNIT (LENGTH_MEASURE( 1.000000000000000100E-005 ), #29, 'distance_accuracy_value', 'NONE');
#4 = DIRECTION ( 'NONE',  ( -0.0000000000000000000, -1.000000000000000000, -0.0000000000000000000 ) ) ;
#5 = CARTESIAN_POINT ( 'NONE',  ( 0.0000000000000000000, 0.0000000000000000000, -0.1875000000000000300 ) ) ;
#6 = LINE ( 'NONE', #5, #132 ) ;
#7 = DIRECTION ( 'NONE',  ( -0.0000000000000000000, -1.000000000000000000, -0.0000000000000000000 ) ) ;
#8 = CARTESIAN_POINT ( 'NONE',  ( 6.123233995736766000E-017, 0.0000000000000000000, 0.5000000000000000000 ) ) ;
#9 = LINE ( 'NONE', #8, #130 ) ;
#10 = APPLICATION_PROTOCOL_DEFINITION ( 'draft international standard', 'automotive_design', 1998, #265 ) ;
#11 = PRODUCT_CONTEXT ( 'NONE', #266, 'mechanical' ) ;
#12 = SHAPE_DEFINITION_REPRESENTATION ( #251, #1 ) ;
#13 = DIRECTION ( 'NONE',  ( 1.000000000000000000, 0.0000000000000000000, 0.0000000000000000000 ) ) ;
#14 = DIRECTION ( 'NONE',  ( 0.0000000000000000000, 0.0000000000000000000, 1.000000000000000000 ) ) ;
#15 = CARTESIAN_POINT ( 'NONE',  ( 0.0000000000000000000, 0.0000000000000000000, 0.0000000000000000000 ) ) ;
#16 =( NAMED_UNIT ( * ) SI_UNIT ( $, .STERADIAN. ) SOLID_ANGLE_UNIT ( ) );
#17 =( NAMED_UNIT ( * ) PLANE_ANGLE_UNIT ( ) SI_UNIT ( $, .RADIAN. ) );
#18 =( CONVERSION_BASED_UNIT ( 'INCH', #122 ) LENGTH_UNIT ( ) NAMED_UNIT ( #247 ) );
#19 =( LENGTH_UNIT ( ) NAMED_UNIT ( * ) SI_UNIT ( $, .METRE. ) );
#20 = PRESENTATION_STYLE_ASSIGNMENT (( #21 ) ) ;
#21 = SURFACE_STYLE_USAGE ( .BOTH. , #22 ) ;
#22 = SURFACE_SIDE_STYLE ('',( #23 ) ) ;
#23 = SURFACE_STYLE_FILL_AREA ( #24 ) ;
#24 = FILL_AREA_STYLE ('',( #25 ) ) ;
#25 = FILL_AREA_STYLE_COLOUR ( '', #285 ) ;
#26 = APPLICATION_PROTOCOL_DEFINITION ( 'draft international standard', 'automotive_design', 1998, #266 ) ;
#27 =( NAMED_UNIT ( * ) SI_UNIT ( $, .STERADIAN. ) SOLID_ANGLE_UNIT ( ) );
#28 =( NAMED_UNIT ( * ) PLANE_ANGLE_UNIT ( ) SI_UNIT ( $, .RADIAN. ) );
#29 =( CONVERSION_BASED_UNIT ( 'INCH', #98 ) LENGTH_UNIT ( ) NAMED_UNIT ( #248 ) );
#30 =( LENGTH_UNIT ( ) NAMED_UNIT ( * ) SI_UNIT ( $, .METRE. ) );
#31 = DIRECTION ( 'NONE',  ( 0.0000000000000000000, 0.0000000000000000000, -1.000000000000000000 ) ) ;
#32 = DIRECTION ( 'NONE',  ( -0.0000000000000000000, -1.000000000000000000, -0.0000000000000000000 ) ) ;
#33 = CARTESIAN_POINT ( 'NONE',  ( 0.0000000000000000000, 0.3999999999999999700, 0.0000000000000000000 ) ) ;
#34 = DIRECTION ( 'NONE',  ( 0.0000000000000000000, 0.0000000000000000000, -1.000000000000000000 ) ) ;
#35 = DIRECTION ( 'NONE',  ( -0.0000000000000000000, -1.000000000000000000, -0.0000000000000000000 ) ) ;
#36 = CARTESIAN_POINT ( 'NONE',  ( 0.0000000000000000000, 0.0000000000000000000, 0.0000000000000000000 ) ) ;
#37 = DIRECTION ( 'NONE',  ( 0.0000000000000000000, 0.0000000000000000000, -1.000000000000000000 ) ) ;
#38 = DIRECTION ( 'NONE',  ( -0.0000000000000000000, -1.000000000000000000, -0.0000000000000000000 ) ) ;
#39 = CARTESIAN_POINT ( 'NONE',  ( 0.0000000000000000000, 0.5000000000000000000, 0.0000000000000000000 ) ) ;
#40 = DIRECTION ( 'NONE',  ( 0.0000000000000000000, 0.0000000000000000000, -1.000000000000000000 ) ) ;
#41 = DIRECTION ( 'NONE',  ( -0.0000000000000000000, -1.000000000000000000, -0.0000000000000000000 ) ) ;
#42 = CARTESIAN_POINT ( 'NONE',  ( 0.0000000000000000000, 0.0000000000000000000, 0.0000000000000000000 ) ) ;
#43 = DIRECTION ( 'NONE',  ( 0.0000000000000000000, 0.0000000000000000000, -1.000000000000000000 ) ) ;
#44 = DIRECTION ( 'NONE',  ( -0.0000000000000000000, -1.000000000000000000, -0.0000000000000000000 ) ) ;
#45 = CARTESIAN_POINT ( 'NONE',  ( 0.0000000000000000000, 0.3999999999999999700, 0.0000000000000000000 ) ) ;
#46 = DIRECTION ( 'NONE',  ( 0.0000000000000000000, 0.0000000000000000000, -1.000000000000000000 ) ) ;
#47 = DIRECTION ( 'NONE',  ( -0.0000000000000000000, -1.000000000000000000, -0.0000000000000000000 ) ) ;
#48 = CARTESIAN_POINT ( 'NONE',  ( 0.0000000000000000000, 0.5000000000000000000, 0.0000000000000000000 ) ) ;
#49 = DIRECTION ( 'NONE',  ( 0.0000000000000000000, 0.0000000000000000000, -1.000000000000000000 ) ) ;
#50 = DIRECTION ( 'NONE',  ( -0.0000000000000000000, -1.000000000000000000, -0.0000000000000000000 ) ) ;
#51 = CARTESIAN_POINT ( 'NONE',  ( 0.0000000000000000000, 0.0000000000000000000, 0.0000000000000000000 ) ) ;
#52 = DIRECTION ( 'NONE',  ( 0.0000000000000000000, 0.0000000000000000000, -1.000000000000000000 ) ) ;
#53 = DIRECTION ( 'NONE',  ( -0.0000000000000000000, -1.000000000000000000, -0.0000000000000000000 ) ) ;
#54 = DIRECTION ( 'NONE',  ( -0.0000000000000000000, -1.000000000000000000, -0.0000000000000000000 ) ) ;
#55 = CARTESIAN_POINT ( 'NONE',  ( 2.296212748401287700E-017, 0.0000000000000000000, 0.1875000000000000300 ) ) ;
#56 = LINE ( 'NONE', #55, #109 ) ;
#57 = DIRECTION ( 'NONE',  ( -0.0000000000000000000, -1.000000000000000000, -0.0000000000000000000 ) ) ;
#58 = CARTESIAN_POINT ( 'NONE',  ( 0.0000000000000000000, 0.0000000000000000000, -0.09374999999999995800 ) ) ;
#59 = LINE ( 'NONE', #58, #113 ) ;
#60 = CARTESIAN_POINT ( 'NONE',  ( 0.0000000000000000000, 0.5000000000000000000, 0.0000000000000000000 ) ) ;
#61 = DIRECTION ( 'NONE',  ( 0.0000000000000000000, 0.0000000000000000000, -1.000000000000000000 ) ) ;
#62 = DIRECTION ( 'NONE',  ( -0.0000000000000000000, -1.000000000000000000, -0.0000000000000000000 ) ) ;
#63 = CARTESIAN_POINT ( 'NONE',  ( 0.0000000000000000000, 0.0000000000000000000, 0.0000000000000000000 ) ) ;
#64 = DIRECTION ( 'NONE',  ( 0.0000000000000000000, 0.0000000000000000000, -1.000000000000000000 ) ) ;
#65 = DIRECTION ( 'NONE',  ( -0.0000000000000000000, -1.000000000000000000, -0.0000000000000000000 ) ) ;
#66 = DIRECTION ( 'NONE',  ( -0.0000000000000000000, -1.000000000000000000, -0.0000000000000000000 ) ) ;
#67 = CARTESIAN_POINT ( 'NONE',  ( 1.148106374200643100E-017, 0.3999999999999999700, 0.09374999999999995800 ) ) ;
#68 = CARTESIAN_POINT ( 'NONE',  ( 2.296212748401287700E-017, 0.3999999999999999700, 0.1875000000000000300 ) ) ;
#69 = CARTESIAN_POINT ( 'NONE',  ( 0.0000000000000000000, 0.5000000000000000000, -0.1875000000000000300 ) ) ;
#70 = CARTESIAN_POINT ( 'NONE',  ( 0.0000000000000000000, 0.3999999999999999700, 0.0000000000000000000 ) ) ;
#71 = LINE ( 'NONE', #72, #117 ) ;
#72 = CARTESIAN_POINT ( 'NONE',  ( 1.148106374200643100E-017, 0.0000000000000000000, 0.09374999999999995800 ) ) ;
#73 = LINE ( 'NONE', #74, #119 ) ;
#74 = CARTESIAN_POINT ( 'NONE',  ( 0.0000000000000000000, 0.0000000000000000000, -0.5000000000000000000 ) ) ;
#75 = DIRECTION ( 'NONE',  ( -0.0000000000000000000, -1.000000000000000000, -0.0000000000000000000 ) ) ;
#76 =( NAMED_UNIT ( * ) SI_UNIT ( $, .STERADIAN. ) SOLID_ANGLE_UNIT ( ) );
#77 =( NAMED_UNIT ( * ) PLANE_ANGLE_UNIT ( ) SI_UNIT ( $, .RADIAN. ) );
#78 =( CONVERSION_BASED_UNIT ( 'INCH', #127 ) LENGTH_UNIT ( ) NAMED_UNIT ( #245 ) );
#79 =( LENGTH_UNIT ( ) NAMED_UNIT ( * ) SI_UNIT ( $, .METRE. ) );
#80 = PRESENTATION_STYLE_ASSIGNMENT (( #81 ) ) ;
#81 = SURFACE_STYLE_USAGE ( .BOTH. , #82 ) ;
#82 = SURFACE_SIDE_STYLE ('',( #83 ) ) ;
#83 = SURFACE_STYLE_FILL_AREA ( #84 ) ;
#84 = FILL_AREA_STYLE ('',( #85 ) ) ;
#85 = FILL_AREA_STYLE_COLOUR ( '', #280 ) ;
#86 = CARTESIAN_POINT ( 'NONE',  ( 1.148106374200643100E-017, 0.0000000000000000000, 0.09374999999999995800 ) ) ;
#87 = CARTESIAN_POINT ( 'NONE',  ( 0.0000000000000000000, 0.3999999999999999700, -0.09374999999999995800 ) ) ;
#88 = CARTESIAN_POINT ( 'NONE',  ( 0.0000000000000000000, 0.0000000000000000000, -0.09374999999999995800 ) ) ;
#89 = CARTESIAN_POINT ( 'NONE',  ( 0.0000000000000000000, 0.3999999999999999700, -0.1875000000000000300 ) ) ;
#90 = CARTESIAN_POINT ( 'NONE',  ( 0.0000000000000000000, 0.5000000000000000000, -0.5000000000000000000 ) ) ;
#91 = CARTESIAN_POINT ( 'NONE',  ( 6.123233995736766000E-017, 0.5000000000000000000, 0.5000000000000000000 ) ) ;
#92 = CARTESIAN_POINT ( 'NONE',  ( 6.123233995736766000E-017, 0.0000000000000000000, 0.5000000000000000000 ) ) ;
#93 = CARTESIAN_POINT ( 'NONE',  ( 0.0000000000000000000, 0.0000000000000000000, -0.5000000000000000000 ) ) ;
#94 = PRESENTATION_LAYER_ASSIGNMENT (  '', '', ( #95 ) ) ;
#95 = STYLED_ITEM ( 'NONE', ( #20 ), #1 ) ;
#96 = CYLINDRICAL_SURFACE ( 'NONE', #97, 0.5000000000000000000 ) ;
#97 = AXIS2_PLACEMENT_3D ( 'NONE', #155, #154, #153 ) ;
#98 = LENGTH_MEASURE_WITH_UNIT ( LENGTH_MEASURE( 0.02539999999999999900 ), #30 );
#99 = AXIS2_PLACEMENT_3D ( 'NONE', #33, #32, #31 ) ;
#100 = CYLINDRICAL_SURFACE ( 'NONE', #104, 0.09374999999999995800 ) ;
#101 = AXIS2_PLACEMENT_3D ( 'NONE', #36, #35, #34 ) ;
#102 = MECHANICAL_DESIGN_GEOMETRIC_PRESENTATION_REPRESENTATION (  '', ( #131 ), #267 ) ;
#103 = AXIS2_PLACEMENT_3D ( 'NONE', #39, #38, #37 ) ;
#104 = AXIS2_PLACEMENT_3D ( 'NONE', #158, #157, #156 ) ;
#105 = FACE_OUTER_BOUND ( 'NONE', #228, .T. ) ;
#106 = AXIS2_PLACEMENT_3D ( 'NONE', #42, #41, #40 ) ;
#107 = AXIS2_PLACEMENT_3D ( 'NONE', #51, #50, #49 ) ;
#108 = AXIS2_PLACEMENT_3D ( 'NONE', #48, #47, #46 ) ;
#109 = VECTOR ( 'NONE', #54, 39.37007874015748100 ) ;
#110 = FACE_OUTER_BOUND ( 'NONE', #227, .T. ) ;
#111 = FACE_OUTER_BOUND ( 'NONE', #226, .T. ) ;
#112 = AXIS2_PLACEMENT_3D ( 'NONE', #164, #163, #162 ) ;
#113 = VECTOR ( 'NONE', #57, 39.37007874015748100 ) ;
#114 = AXIS2_PLACEMENT_3D ( 'NONE', #60, #53, #52 ) ;
#115 = AXIS2_PLACEMENT_3D ( 'NONE', #152, #150, #149 ) ;
#116 = AXIS2_PLACEMENT_3D ( 'NONE', #63, #62, #61 ) ;
#117 = VECTOR ( 'NONE', #66, 39.37007874015748100 ) ;
#118 = AXIS2_PLACEMENT_3D ( 'NONE', #70, #65, #64 ) ;
#119 = VECTOR ( 'NONE', #75, 39.37007874015748100 ) ;
#120 = PRODUCT_DEFINITION_FORMATION_WITH_SPECIFIED_SOURCE ( 'ANY', '', #246, .NOT_KNOWN. ) ;
#121 = CYLINDRICAL_SURFACE ( 'NONE', #107, 0.1875000000000000300 ) ;
#122 = LENGTH_MEASURE_WITH_UNIT ( LENGTH_MEASURE( 0.02539999999999999900 ), #19 );
#123 = FACE_BOUND ( 'NONE', #231, .T. ) ;
#124 = FACE_OUTER_BOUND ( 'NONE', #229, .T. ) ;
#125 = CYLINDRICAL_SURFACE ( 'NONE', #126, 0.5000000000000000000 ) ;
#126 = AXIS2_PLACEMENT_3D ( 'NONE', #168, #167, #166 ) ;
#127 = LENGTH_MEASURE_WITH_UNIT ( LENGTH_MEASURE( 0.02539999999999999900 ), #79 );
#128 = AXIS2_PLACEMENT_3D ( 'NONE', #45, #44, #43 ) ;
#129 = MECHANICAL_DESIGN_GEOMETRIC_PRESENTATION_REPRESENTATION (  '', ( #95 ), #269 ) ;
#130 = VECTOR ( 'NONE', #7, 39.37007874015748100 ) ;
#131 = STYLED_ITEM ( 'NONE', ( #80 ), #249 ) ;
#132 = VECTOR ( 'NONE', #4, 39.37007874015748100 ) ;
#133 = PRESENTATION_LAYER_ASSIGNMENT (  '', '', ( #131 ) ) ;
#134 = AXIS2_PLACEMENT_3D ( 'NONE', #15, #14, #13 ) ;
#135 = EDGE_CURVE ( 'NONE', #219, #218, #253, .T. ) ;
#136 = EDGE_CURVE ( 'NONE', #220, #221, #273, .T. ) ;
#137 = ADVANCED_FACE ( 'NONE', ( #303, #291 ), #179, .F. ) ;
#138 = ADVANCED_FACE ( 'NONE', ( #292 ), #295, .F. ) ;
#139 = ADVANCED_FACE ( 'NONE', ( #293, #299 ), #172, .F. ) ;
#140 = ADVANCED_FACE ( 'NONE', ( #288 ), #125, .T. ) ;
#141 = ADVANCED_FACE ( 'NONE', ( #296, #123 ), #165, .T. ) ;
#142 = ADVANCED_FACE ( 'NONE', ( #124 ), #294, .F. ) ;
#143 = ADVANCED_FACE ( 'NONE', ( #111 ), #100, .F. ) ;
#144 = ADVANCED_FACE ( 'NONE', ( #105 ), #96, .T. ) ;
#145 = EDGE_CURVE ( 'NONE', #216, #222, #274, .T. ) ;
#146 = EDGE_CURVE ( 'NONE', #215, #222, #6, .T. ) ;
#147 = EDGE_CURVE ( 'NONE', #220, #219, #9, .T. ) ;
#148 = CARTESIAN_POINT ( 'NONE',  ( 2.296212748401287700E-017, 0.5000000000000000000, 0.1875000000000000300 ) ) ;
#149 = DIRECTION ( 'NONE',  ( 0.0000000000000000000, 0.0000000000000000000, -1.000000000000000000 ) ) ;
#150 = DIRECTION ( 'NONE',  ( -0.0000000000000000000, -1.000000000000000000, -0.0000000000000000000 ) ) ;
#151 = ORIENTED_EDGE ( 'NONE', *, *, #256, .F. ) ;
#152 = CARTESIAN_POINT ( 'NONE',  ( 0.0000000000000000000, 0.3999999999999999700, 0.0000000000000000000 ) ) ;
#153 = DIRECTION ( 'NONE',  ( 0.0000000000000000000, 0.0000000000000000000, -1.000000000000000000 ) ) ;
#154 = DIRECTION ( 'NONE',  ( -0.0000000000000000000, -1.000000000000000000, -0.0000000000000000000 ) ) ;
#155 = CARTESIAN_POINT ( 'NONE',  ( 0.0000000000000000000, 0.0000000000000000000, 0.0000000000000000000 ) ) ;
#156 = DIRECTION ( 'NONE',  ( 0.0000000000000000000, 0.0000000000000000000, -1.000000000000000000 ) ) ;
#157 = DIRECTION ( 'NONE',  ( -0.0000000000000000000, -1.000000000000000000, -0.0000000000000000000 ) ) ;
#158 = CARTESIAN_POINT ( 'NONE',  ( 0.0000000000000000000, 0.0000000000000000000, 0.0000000000000000000 ) ) ;
#159 = DIRECTION ( 'NONE',  ( 0.0000000000000000000, 0.0000000000000000000, -1.000000000000000000 ) ) ;
#160 = DIRECTION ( 'NONE',  ( -0.0000000000000000000, -1.000000000000000000, -0.0000000000000000000 ) ) ;
#161 = CARTESIAN_POINT ( 'NONE',  ( 0.0000000000000000000, 0.0000000000000000000, 0.0000000000000000000 ) ) ;
#162 = DIRECTION ( 'NONE',  ( 0.0000000000000000000, 0.0000000000000000000, -1.000000000000000000 ) ) ;
#163 = DIRECTION ( 'NONE',  ( 0.0000000000000000000, -1.000000000000000000, -0.0000000000000000000 ) ) ;
#164 = CARTESIAN_POINT ( 'NONE',  ( 0.0000000000000000000, 0.0000000000000000000, 0.0000000000000000000 ) ) ;
#165 = PLANE ( 'NONE',  #112 ) ;
#166 = DIRECTION ( 'NONE',  ( 0.0000000000000000000, 0.0000000000000000000, -1.000000000000000000 ) ) ;
#167 = DIRECTION ( 'NONE',  ( -0.0000000000000000000, -1.000000000000000000, -0.0000000000000000000 ) ) ;
#168 = CARTESIAN_POINT ( 'NONE',  ( 0.0000000000000000000, 0.0000000000000000000, 0.0000000000000000000 ) ) ;
#169 = DIRECTION ( 'NONE',  ( 0.0000000000000000000, 0.0000000000000000000, -1.000000000000000000 ) ) ;
#170 = DIRECTION ( 'NONE',  ( 0.0000000000000000000, -1.000000000000000000, -0.0000000000000000000 ) ) ;
#171 = CARTESIAN_POINT ( 'NONE',  ( 0.0000000000000000000, 0.5000000000000000000, 0.0000000000000000000 ) ) ;
#172 = PLANE ( 'NONE',  #297 ) ;
#173 = DIRECTION ( 'NONE',  ( 0.0000000000000000000, 0.0000000000000000000, -1.000000000000000000 ) ) ;
#174 = DIRECTION ( 'NONE',  ( -0.0000000000000000000, -1.000000000000000000, -0.0000000000000000000 ) ) ;
#175 = CARTESIAN_POINT ( 'NONE',  ( 0.0000000000000000000, 0.0000000000000000000, 0.0000000000000000000 ) ) ;
#176 = DIRECTION ( 'NONE',  ( 0.0000000000000000000, 0.0000000000000000000, -1.000000000000000000 ) ) ;
#177 = DIRECTION ( 'NONE',  ( 0.0000000000000000000, -1.000000000000000000, -0.0000000000000000000 ) ) ;
#178 = CARTESIAN_POINT ( 'NONE',  ( 0.0000000000000000000, 0.3999999999999999700, 0.0000000000000000000 ) ) ;
#179 = PLANE ( 'NONE',  #290 ) ;
#180 = DIRECTION ( 'NONE',  ( 0.0000000000000000000, 0.0000000000000000000, -1.000000000000000000 ) ) ;
#181 = DIRECTION ( 'NONE',  ( -0.0000000000000000000, -1.000000000000000000, -0.0000000000000000000 ) ) ;
#182 = CARTESIAN_POINT ( 'NONE',  ( 0.0000000000000000000, 0.5000000000000000000, 0.0000000000000000000 ) ) ;
#183 = DIRECTION ( 'NONE',  ( 0.0000000000000000000, 0.0000000000000000000, -1.000000000000000000 ) ) ;
#184 = DIRECTION ( 'NONE',  ( -0.0000000000000000000, -1.000000000000000000, -0.0000000000000000000 ) ) ;
#185 = CARTESIAN_POINT ( 'NONE',  ( 0.0000000000000000000, 0.0000000000000000000, 0.0000000000000000000 ) ) ;
#186 = ORIENTED_EDGE ( 'NONE', *, *, #254, .F. ) ;
#187 = ORIENTED_EDGE ( 'NONE', *, *, #147, .T. ) ;
#188 = ORIENTED_EDGE ( 'NONE', *, *, #271, .F. ) ;
#189 = ORIENTED_EDGE ( 'NONE', *, *, #270, .T. ) ;
#190 = ORIENTED_EDGE ( 'NONE', *, *, #146, .F. ) ;
#191 = ORIENTED_EDGE ( 'NONE', *, *, #259, .T. ) ;
#192 = ORIENTED_EDGE ( 'NONE', *, *, #263, .F. ) ;
#193 = ORIENTED_EDGE ( 'NONE', *, *, #136, .T. ) ;
#194 = ORIENTED_EDGE ( 'NONE', *, *, #147, .F. ) ;
#195 = ORIENTED_EDGE ( 'NONE', *, *, #264, .F. ) ;
#196 = ORIENTED_EDGE ( 'NONE', *, *, #257, .F. ) ;
#197 = ORIENTED_EDGE ( 'NONE', *, *, #135, .T. ) ;
#198 = ORIENTED_EDGE ( 'NONE', *, *, #271, .T. ) ;
#199 = ORIENTED_EDGE ( 'NONE', *, *, #254, .T. ) ;
#200 = ORIENTED_EDGE ( 'NONE', *, *, #264, .T. ) ;
#201 = ORIENTED_EDGE ( 'NONE', *, *, #145, .T. ) ;
#202 = ORIENTED_EDGE ( 'NONE', *, *, #146, .T. ) ;
#203 = ORIENTED_EDGE ( 'NONE', *, *, #262, .F. ) ;
#204 = ORIENTED_EDGE ( 'NONE', *, *, #259, .F. ) ;
#205 = ORIENTED_EDGE ( 'NONE', *, *, #260, .T. ) ;
#206 = ORIENTED_EDGE ( 'NONE', *, *, #263, .T. ) ;
#207 = ORIENTED_EDGE ( 'NONE', *, *, #262, .T. ) ;
#208 = ORIENTED_EDGE ( 'NONE', *, *, #136, .F. ) ;
#209 = ORIENTED_EDGE ( 'NONE', *, *, #270, .F. ) ;
#210 = ORIENTED_EDGE ( 'NONE', *, *, #135, .F. ) ;
#211 = ORIENTED_EDGE ( 'NONE', *, *, #256, .T. ) ;
#212 = ORIENTED_EDGE ( 'NONE', *, *, #272, .T. ) ;
#213 = ORIENTED_EDGE ( 'NONE', *, *, #145, .F. ) ;
#214 = VERTEX_POINT ( 'NONE', #148 ) ;
#215 = VERTEX_POINT ( 'NONE', #69 ) ;
#216 = VERTEX_POINT ( 'NONE', #68 ) ;
#217 = VERTEX_POINT ( 'NONE', #67 ) ;
#218 = VERTEX_POINT ( 'NONE', #93 ) ;
#219 = VERTEX_POINT ( 'NONE', #92 ) ;
#220 = VERTEX_POINT ( 'NONE', #91 ) ;
#221 = VERTEX_POINT ( 'NONE', #90 ) ;
#222 = VERTEX_POINT ( 'NONE', #89 ) ;
#223 = VERTEX_POINT ( 'NONE', #88 ) ;
#224 = VERTEX_POINT ( 'NONE', #87 ) ;
#225 = VERTEX_POINT ( 'NONE', #86 ) ;
#226 = EDGE_LOOP ( 'NONE', ( #151, #243, #244, #242 ) ) ;
#227 = EDGE_LOOP ( 'NONE', ( #238, #191, #201, #190 ) ) ;
#228 = EDGE_LOOP ( 'NONE', ( #189, #187, #188, #186 ) ) ;
#229 = EDGE_LOOP ( 'NONE', ( #241, #239, #240, #200 ) ) ;
#230 = EDGE_LOOP ( 'NONE', ( #198, #197 ) ) ;
#231 = EDGE_LOOP ( 'NONE', ( #195, #196 ) ) ;
#232 = EDGE_LOOP ( 'NONE', ( #194, #193, #199, #210 ) ) ;
#233 = EDGE_LOOP ( 'NONE', ( #209, #208 ) ) ;
#234 = EDGE_LOOP ( 'NONE', ( #207, #205 ) ) ;
#235 = EDGE_LOOP ( 'NONE', ( #204, #203, #202, #206 ) ) ;
#236 = EDGE_LOOP ( 'NONE', ( #192, #213 ) ) ;
#237 = EDGE_LOOP ( 'NONE', ( #212, #211 ) ) ;
#238 = ORIENTED_EDGE ( 'NONE', *, *, #260, .F. ) ;
#239 = ORIENTED_EDGE ( 'NONE', *, *, #272, .F. ) ;
#240 = ORIENTED_EDGE ( 'NONE', *, *, #258, .T. ) ;
#241 = ORIENTED_EDGE ( 'NONE', *, *, #255, .F. ) ;
#242 = ORIENTED_EDGE ( 'NONE', *, *, #258, .F. ) ;
#243 = ORIENTED_EDGE ( 'NONE', *, *, #255, .T. ) ;
#244 = ORIENTED_EDGE ( 'NONE', *, *, #257, .T. ) ;
#245 = DIMENSIONAL_EXPONENTS ( 1.000000000000000000, 0.0000000000000000000, 0.0000000000000000000, 0.0000000000000000000, 0.0000000000000000000, 0.0000000000000000000, 0.0000000000000000000 ) ;
#246 = PRODUCT ( 'DH500H-FN', 'DH500H-FN', '', ( #11 ) ) ;
#247 = DIMENSIONAL_EXPONENTS ( 1.000000000000000000, 0.0000000000000000000, 0.0000000000000000000, 0.0000000000000000000, 0.0000000000000000000, 0.0000000000000000000, 0.0000000000000000000 ) ;
#248 = DIMENSIONAL_EXPONENTS ( 1.000000000000000000, 0.0000000000000000000, 0.0000000000000000000, 0.0000000000000000000, 0.0000000000000000000, 0.0000000000000000000, 0.0000000000000000000 ) ;
#249 = MANIFOLD_SOLID_BREP ( 'Revolve3', #300 ) ;
#250 = PRODUCT_DEFINITION_CONTEXT ( 'detailed design', #265, 'design' ) ;
#251 = PRODUCT_DEFINITION_SHAPE ( 'NONE', 'NONE',  #286 ) ;
#252 = UNCERTAINTY_MEASURE_WITH_UNIT (LENGTH_MEASURE( 1.000000000000000100E-005 ), #78, 'distance_accuracy_value', 'NONE');
#253 = CIRCLE ( 'NONE', #302, 0.5000000000000000000 ) ;
#254 = EDGE_CURVE ( 'NONE', #221, #218, #73, .T. ) ;
#255 = EDGE_CURVE ( 'NONE', #217, #225, #71, .T. ) ;
#256 = EDGE_CURVE ( 'NONE', #217, #224, #277, .T. ) ;
#257 = EDGE_CURVE ( 'NONE', #225, #223, #278, .T. ) ;
#258 = EDGE_CURVE ( 'NONE', #224, #223, #59, .T. ) ;
#259 = EDGE_CURVE ( 'NONE', #214, #216, #56, .T. ) ;
#260 = EDGE_CURVE ( 'NONE', #214, #215, #279, .T. ) ;
#261 = ADVANCED_FACE ( 'NONE', ( #110 ), #121, .F. ) ;
#262 = EDGE_CURVE ( 'NONE', #215, #214, #276, .T. ) ;
#263 = EDGE_CURVE ( 'NONE', #222, #216, #275, .T. ) ;
#264 = EDGE_CURVE ( 'NONE', #223, #225, #281, .T. ) ;
#265 = APPLICATION_CONTEXT ( 'automotive_design' ) ;
#266 = APPLICATION_CONTEXT ( 'automotive_design' ) ;
#267 =( GEOMETRIC_REPRESENTATION_CONTEXT ( 3 ) GLOBAL_UNCERTAINTY_ASSIGNED_CONTEXT ( ( #252 ) ) GLOBAL_UNIT_ASSIGNED_CONTEXT ( ( #78, #77, #76 ) ) REPRESENTATION_CONTEXT ( 'NONE', 'WORKASPACE' ) );
#268 =( GEOMETRIC_REPRESENTATION_CONTEXT ( 3 ) GLOBAL_UNCERTAINTY_ASSIGNED_CONTEXT ( ( #3 ) ) GLOBAL_UNIT_ASSIGNED_CONTEXT ( ( #29, #28, #27 ) ) REPRESENTATION_CONTEXT ( 'NONE', 'WORKASPACE' ) );
#269 =( GEOMETRIC_REPRESENTATION_CONTEXT ( 3 ) GLOBAL_UNCERTAINTY_ASSIGNED_CONTEXT ( ( #2 ) ) GLOBAL_UNIT_ASSIGNED_CONTEXT ( ( #18, #17, #16 ) ) REPRESENTATION_CONTEXT ( 'NONE', 'WORKASPACE' ) );
#270 = EDGE_CURVE ( 'NONE', #221, #220, #282, .T. ) ;
#271 = EDGE_CURVE ( 'NONE', #218, #219, #283, .T. ) ;
#272 = EDGE_CURVE ( 'NONE', #224, #217, #284, .T. ) ;
#273 = CIRCLE ( 'NONE', #289, 0.5000000000000000000 ) ;
#274 = CIRCLE ( 'NONE', #115, 0.1875000000000000300 ) ;
#275 = CIRCLE ( 'NONE', #128, 0.1875000000000000300 ) ;
#276 = CIRCLE ( 'NONE', #108, 0.1875000000000000300 ) ;
#277 = CIRCLE ( 'NONE', #118, 0.09374999999999995800 ) ;
#278 = CIRCLE ( 'NONE', #116, 0.09374999999999995800 ) ;
#279 = CIRCLE ( 'NONE', #114, 0.1875000000000000300 ) ;
#280 = COLOUR_RGB ( '',0.5686274509803921400, 0.5686274509803921400, 0.5882352941176470800 ) ;
#281 = CIRCLE ( 'NONE', #106, 0.09374999999999995800 ) ;
#282 = CIRCLE ( 'NONE', #103, 0.5000000000000000000 ) ;
#283 = CIRCLE ( 'NONE', #101, 0.5000000000000000000 ) ;
#284 = CIRCLE ( 'NONE', #99, 0.09374999999999995800 ) ;
#285 = COLOUR_RGB ( '',0.5686274509803921400, 0.5686274509803921400, 0.5882352941176470800 ) ;
#286 = PRODUCT_DEFINITION ( 'UNKNOWN', '', #120, #250 ) ;
#287 = PRODUCT_RELATED_PRODUCT_CATEGORY ( 'part', '', ( #246 ) ) ;
#288 = FACE_OUTER_BOUND ( 'NONE', #232, .T. ) ;
#289 = AXIS2_PLACEMENT_3D ( 'NONE', #182, #181, #180 ) ;
#290 = AXIS2_PLACEMENT_3D ( 'NONE', #178, #177, #176 ) ;
#291 = FACE_BOUND ( 'NONE', #237, .T. ) ;
#292 = FACE_OUTER_BOUND ( 'NONE', #235, .T. ) ;
#293 = FACE_OUTER_BOUND ( 'NONE', #233, .T. ) ;
#294 = CYLINDRICAL_SURFACE ( 'NONE', #301, 0.09374999999999995800 ) ;
#295 = CYLINDRICAL_SURFACE ( 'NONE', #298, 0.1875000000000000300 ) ;
#296 = FACE_OUTER_BOUND ( 'NONE', #230, .T. ) ;
#297 = AXIS2_PLACEMENT_3D ( 'NONE', #171, #170, #169 ) ;
#298 = AXIS2_PLACEMENT_3D ( 'NONE', #175, #174, #173 ) ;
#299 = FACE_BOUND ( 'NONE', #234, .T. ) ;
#300 = CLOSED_SHELL ( 'NONE', ( #261, #144, #143, #142, #141, #140, #139, #138, #137 ) ) ;
#301 = AXIS2_PLACEMENT_3D ( 'NONE', #161, #160, #159 ) ;
#302 = AXIS2_PLACEMENT_3D ( 'NONE', #185, #184, #183 ) ;
#303 = FACE_OUTER_BOUND ( 'NONE', #236, .T. ) ;
ENDSEC;
END-ISO-10303-21;
