ISO-10303-21;
HEADER;
FILE_DESCRIPTION (( 'STEP AP214' ),
    '1' );
FILE_NAME ('H094H.step',
    '2012-04-20T20:57:56',
    ( '' ),
    ( '' ),
    'SwSTEP 2.0',
    'SolidWorks 2012',
    '' );
FILE_SCHEMA (( 'AUTOMOTIVE_DESIGN' ));
ENDSEC;

DATA;
#1 = CIRCLE ( 'NONE', #73, 0.3750000000000000600 ) ;
#2 = CIRCLE ( 'NONE', #90, 0.5000000000000000000 ) ;
#3 = COLOUR_RGB ( '',0.5686274509803921400, 0.5686274509803921400, 0.5882352941176470800 ) ;
#4 = CIRCLE ( 'NONE', #89, 0.3750000000000000600 ) ;
#5 = CIRCLE ( 'NONE', #88, 0.5000000000000000000 ) ;
#6 = CIRCLE ( 'NONE', #221, 0.5000000000000000000 ) ;
#7 = CIRCLE ( 'NONE', #87, 0.5000000000000000000 ) ;
#8 = COLOUR_RGB ( '',0.5686274509803921400, 0.5686274509803921400, 0.5882352941176470800 ) ;
#9 = PRODUCT_DEFINITION ( 'UNKNOWN', '', #80, #183 ) ;
#10 = PRODUCT_RELATED_PRODUCT_CATEGORY ( 'part', '', ( #180 ) ) ;
#11 = DIRECTION ( 'NONE',  ( 0.0000000000000000000, 0.0000000000000000000, 1.000000000000000000 ) ) ;
#12 = SHAPE_DEFINITION_REPRESENTATION ( #184, #188 ) ;
#13 =( NAMED_UNIT ( * ) SI_UNIT ( $, .STERADIAN. ) SOLID_ANGLE_UNIT ( ) );
#14 = APPLICATION_PROTOCOL_DEFINITION ( 'draft international standard', 'automotive_design', 1998, #191 ) ;
#15 = CARTESIAN_POINT ( 'NONE',  ( 0.0000000000000000000, 0.0000000000000000000, 0.0000000000000000000 ) ) ;
#16 = CARTESIAN_POINT ( 'NONE',  ( -0.3750000000000000600, 0.0000000000000000000, 0.09375000000000001400 ) ) ;
#17 = CARTESIAN_POINT ( 'NONE',  ( 0.0000000000000000000, 0.0000000000000000000, 0.0000000000000000000 ) ) ;
#18 = PRODUCT_CONTEXT ( 'NONE', #190, 'mechanical' ) ;
#19 = DIRECTION ( 'NONE',  ( 1.000000000000000000, 0.0000000000000000000, 0.0000000000000000000 ) ) ;
#20 = DIRECTION ( 'NONE',  ( 0.0000000000000000000, 0.0000000000000000000, 1.000000000000000000 ) ) ;
#21 =( NAMED_UNIT ( * ) PLANE_ANGLE_UNIT ( ) SI_UNIT ( $, .RADIAN. ) );
#22 =( CONVERSION_BASED_UNIT ( 'INCH', #74 ) LENGTH_UNIT ( ) NAMED_UNIT ( #178 ) );
#23 =( LENGTH_UNIT ( ) NAMED_UNIT ( * ) SI_UNIT ( $, .METRE. ) );
#24 = PRESENTATION_STYLE_ASSIGNMENT (( #27 ) ) ;
#25 = SURFACE_STYLE_FILL_AREA ( #28 ) ;
#26 = SURFACE_SIDE_STYLE ('',( #25 ) ) ;
#27 = SURFACE_STYLE_USAGE ( .BOTH. , #26 ) ;
#28 = FILL_AREA_STYLE ('',( #29 ) ) ;
#29 = FILL_AREA_STYLE_COLOUR ( '', #8 ) ;
#30 = APPLICATION_PROTOCOL_DEFINITION ( 'draft international standard', 'automotive_design', 1998, #190 ) ;
#31 = DIRECTION ( 'NONE',  ( 1.000000000000000000, 0.0000000000000000000, 0.0000000000000000000 ) ) ;
#32 =( NAMED_UNIT ( * ) SI_UNIT ( $, .STERADIAN. ) SOLID_ANGLE_UNIT ( ) );
#33 = LINE ( 'NONE', #16, #72 ) ;
#34 =( CONVERSION_BASED_UNIT ( 'INCH', #81 ) LENGTH_UNIT ( ) NAMED_UNIT ( #181 ) );
#35 = CARTESIAN_POINT ( 'NONE',  ( 0.0000000000000000000, 0.0000000000000000000, 0.09375000000000001400 ) ) ;
#36 =( NAMED_UNIT ( * ) PLANE_ANGLE_UNIT ( ) SI_UNIT ( $, .RADIAN. ) );
#37 =( LENGTH_UNIT ( ) NAMED_UNIT ( * ) SI_UNIT ( $, .METRE. ) );
#38 = DIRECTION ( 'NONE',  ( 1.000000000000000000, 0.0000000000000000000, 0.0000000000000000000 ) ) ;
#39 = DIRECTION ( 'NONE',  ( 0.0000000000000000000, 0.0000000000000000000, 1.000000000000000000 ) ) ;
#40 = DIRECTION ( 'NONE',  ( 1.000000000000000000, 0.0000000000000000000, 0.0000000000000000000 ) ) ;
#41 = CARTESIAN_POINT ( 'NONE',  ( 0.0000000000000000000, 0.0000000000000000000, 0.0000000000000000000 ) ) ;
#42 = CARTESIAN_POINT ( 'NONE',  ( 0.0000000000000000000, 0.0000000000000000000, 0.09375000000000001400 ) ) ;
#43 = DIRECTION ( 'NONE',  ( -0.0000000000000000000, -0.0000000000000000000, -1.000000000000000000 ) ) ;
#44 = DIRECTION ( 'NONE',  ( -1.000000000000000000, 0.0000000000000000000, 0.0000000000000000000 ) ) ;
#45 = DIRECTION ( 'NONE',  ( -1.000000000000000000, 0.0000000000000000000, 0.0000000000000000000 ) ) ;
#46 = DIRECTION ( 'NONE',  ( -0.0000000000000000000, -0.0000000000000000000, -1.000000000000000000 ) ) ;
#47 = CARTESIAN_POINT ( 'NONE',  ( 0.0000000000000000000, 0.0000000000000000000, 0.09375000000000001400 ) ) ;
#48 = DIRECTION ( 'NONE',  ( 1.000000000000000000, 0.0000000000000000000, -0.0000000000000000000 ) ) ;
#49 = DIRECTION ( 'NONE',  ( 0.0000000000000000000, 0.0000000000000000000, 1.000000000000000000 ) ) ;
#50 = CARTESIAN_POINT ( 'NONE',  ( 0.0000000000000000000, 0.0000000000000000000, 0.09375000000000001400 ) ) ;
#51 = PLANE ( 'NONE',  #85 ) ;
#52 = DIRECTION ( 'NONE',  ( 1.000000000000000000, 0.0000000000000000000, -0.0000000000000000000 ) ) ;
#53 = DIRECTION ( 'NONE',  ( 0.0000000000000000000, 0.0000000000000000000, 1.000000000000000000 ) ) ;
#54 = CARTESIAN_POINT ( 'NONE',  ( 0.0000000000000000000, 0.0000000000000000000, 0.0000000000000000000 ) ) ;
#55 = PLANE ( 'NONE',  #93 ) ;
#56 = DIRECTION ( 'NONE',  ( -1.000000000000000000, 0.0000000000000000000, 0.0000000000000000000 ) ) ;
#57 = DIRECTION ( 'NONE',  ( -0.0000000000000000000, -0.0000000000000000000, -1.000000000000000000 ) ) ;
#58 = CARTESIAN_POINT ( 'NONE',  ( 0.0000000000000000000, 0.0000000000000000000, 0.09375000000000001400 ) ) ;
#59 = DIRECTION ( 'NONE',  ( -1.000000000000000000, 0.0000000000000000000, 0.0000000000000000000 ) ) ;
#60 = DIRECTION ( 'NONE',  ( -0.0000000000000000000, -0.0000000000000000000, -1.000000000000000000 ) ) ;
#61 = CARTESIAN_POINT ( 'NONE',  ( 0.0000000000000000000, 0.0000000000000000000, 0.09375000000000001400 ) ) ;
#62 = DIRECTION ( 'NONE',  ( 1.000000000000000000, 0.0000000000000000000, 0.0000000000000000000 ) ) ;
#63 = DIRECTION ( 'NONE',  ( 0.0000000000000000000, 0.0000000000000000000, 1.000000000000000000 ) ) ;
#64 = CARTESIAN_POINT ( 'NONE',  ( 0.0000000000000000000, 0.0000000000000000000, 0.0000000000000000000 ) ) ;
#65 = DIRECTION ( 'NONE',  ( 1.000000000000000000, 0.0000000000000000000, 0.0000000000000000000 ) ) ;
#66 = DIRECTION ( 'NONE',  ( 0.0000000000000000000, 0.0000000000000000000, 1.000000000000000000 ) ) ;
#67 = DIRECTION ( 'NONE',  ( -0.0000000000000000000, -0.0000000000000000000, -1.000000000000000000 ) ) ;
#68 = CARTESIAN_POINT ( 'NONE',  ( 0.5000000000000000000, 6.123233995736764800E-017, 0.09375000000000001400 ) ) ;
#69 = LINE ( 'NONE', #68, #86 ) ;
#70 = DIRECTION ( 'NONE',  ( -0.0000000000000000000, -0.0000000000000000000, -1.000000000000000000 ) ) ;
#71 = AXIS2_PLACEMENT_3D ( 'NONE', #15, #11, #31 ) ;
#72 = VECTOR ( 'NONE', #70, 39.37007874015748100 ) ;
#73 = AXIS2_PLACEMENT_3D ( 'NONE', #122, #123, #19 ) ;
#74 = LENGTH_MEASURE_WITH_UNIT ( LENGTH_MEASURE( 0.02539999999999999900 ), #23 );
#75 = MECHANICAL_DESIGN_GEOMETRIC_PRESENTATION_REPRESENTATION (  '', ( #78 ), #212 ) ;
#76 = VECTOR ( 'NONE', #104, 39.37007874015748100 ) ;
#77 = PRESENTATION_LAYER_ASSIGNMENT (  '', '', ( #78 ) ) ;
#78 = STYLED_ITEM ( 'NONE', ( #24 ), #188 ) ;
#79 = AXIS2_PLACEMENT_3D ( 'NONE', #58, #57, #56 ) ;
#80 = PRODUCT_DEFINITION_FORMATION_WITH_SPECIFIED_SOURCE ( 'ANY', '', #180, .NOT_KNOWN. ) ;
#81 = LENGTH_MEASURE_WITH_UNIT ( LENGTH_MEASURE( 0.02539999999999999900 ), #37 );
#82 = CYLINDRICAL_SURFACE ( 'NONE', #83, 0.3750000000000000600 ) ;
#83 = AXIS2_PLACEMENT_3D ( 'NONE', #42, #43, #44 ) ;
#84 = CYLINDRICAL_SURFACE ( 'NONE', #92, 0.5000000000000000000 ) ;
#85 = AXIS2_PLACEMENT_3D ( 'NONE', #50, #49, #48 ) ;
#86 = VECTOR ( 'NONE', #67, 39.37007874015748100 ) ;
#87 = AXIS2_PLACEMENT_3D ( 'NONE', #41, #39, #40 ) ;
#88 = AXIS2_PLACEMENT_3D ( 'NONE', #35, #66, #65 ) ;
#89 = AXIS2_PLACEMENT_3D ( 'NONE', #17, #20, #38 ) ;
#90 = AXIS2_PLACEMENT_3D ( 'NONE', #107, #103, #121 ) ;
#91 = FACE_OUTER_BOUND ( 'NONE', #177, .T. ) ;
#92 = AXIS2_PLACEMENT_3D ( 'NONE', #47, #46, #45 ) ;
#93 = AXIS2_PLACEMENT_3D ( 'NONE', #54, #53, #52 ) ;
#94 = FACE_OUTER_BOUND ( 'NONE', #176, .T. ) ;
#95 = FACE_OUTER_BOUND ( 'NONE', #171, .T. ) ;
#96 = FACE_OUTER_BOUND ( 'NONE', #175, .T. ) ;
#97 = FACE_BOUND ( 'NONE', #172, .T. ) ;
#98 = FACE_BOUND ( 'NONE', #170, .T. ) ;
#99 = CYLINDRICAL_SURFACE ( 'NONE', #79, 0.5000000000000000000 ) ;
#100 = AXIS2_PLACEMENT_3D ( 'NONE', #61, #60, #59 ) ;
#101 = CYLINDRICAL_SURFACE ( 'NONE', #100, 0.3750000000000000600 ) ;
#102 = FACE_OUTER_BOUND ( 'NONE', #173, .T. ) ;
#103 = DIRECTION ( 'NONE',  ( 0.0000000000000000000, 0.0000000000000000000, 1.000000000000000000 ) ) ;
#104 = DIRECTION ( 'NONE',  ( -0.0000000000000000000, -0.0000000000000000000, -1.000000000000000000 ) ) ;
#105 = CARTESIAN_POINT ( 'NONE',  ( -0.5000000000000000000, 0.0000000000000000000, 0.09375000000000001400 ) ) ;
#106 = LINE ( 'NONE', #105, #76 ) ;
#107 = CARTESIAN_POINT ( 'NONE',  ( 0.0000000000000000000, 0.0000000000000000000, 0.09375000000000001400 ) ) ;
#108 = DIRECTION ( 'NONE',  ( 1.000000000000000000, 0.0000000000000000000, 0.0000000000000000000 ) ) ;
#109 = DIRECTION ( 'NONE',  ( 0.0000000000000000000, 0.0000000000000000000, 1.000000000000000000 ) ) ;
#110 = CARTESIAN_POINT ( 'NONE',  ( 0.0000000000000000000, 0.0000000000000000000, 0.0000000000000000000 ) ) ;
#111 = DIRECTION ( 'NONE',  ( 1.000000000000000000, 0.0000000000000000000, 0.0000000000000000000 ) ) ;
#112 = DIRECTION ( 'NONE',  ( 0.0000000000000000000, 0.0000000000000000000, 1.000000000000000000 ) ) ;
#113 = CARTESIAN_POINT ( 'NONE',  ( 0.0000000000000000000, 0.0000000000000000000, 0.09375000000000001400 ) ) ;
#114 = DIRECTION ( 'NONE',  ( -0.0000000000000000000, -0.0000000000000000000, -1.000000000000000000 ) ) ;
#115 = CARTESIAN_POINT ( 'NONE',  ( 0.3750000000000000600, 4.592425496802573600E-017, 0.09375000000000001400 ) ) ;
#116 = LINE ( 'NONE', #115, #219 ) ;
#117 =( NAMED_UNIT ( * ) SI_UNIT ( $, .STERADIAN. ) SOLID_ANGLE_UNIT ( ) );
#118 =( NAMED_UNIT ( * ) PLANE_ANGLE_UNIT ( ) SI_UNIT ( $, .RADIAN. ) );
#119 =( CONVERSION_BASED_UNIT ( 'INCH', #222 ) LENGTH_UNIT ( ) NAMED_UNIT ( #179 ) );
#120 =( LENGTH_UNIT ( ) NAMED_UNIT ( * ) SI_UNIT ( $, .METRE. ) );
#121 = DIRECTION ( 'NONE',  ( 1.000000000000000000, 0.0000000000000000000, 0.0000000000000000000 ) ) ;
#122 = CARTESIAN_POINT ( 'NONE',  ( 0.0000000000000000000, 0.0000000000000000000, 0.09375000000000001400 ) ) ;
#123 = DIRECTION ( 'NONE',  ( 0.0000000000000000000, 0.0000000000000000000, 1.000000000000000000 ) ) ;
#124 = SURFACE_STYLE_USAGE ( .BOTH. , #129 ) ;
#125 = FILL_AREA_STYLE_COLOUR ( '', #3 ) ;
#126 = CARTESIAN_POINT ( 'NONE',  ( -0.3750000000000000600, 0.0000000000000000000, 0.0000000000000000000 ) ) ;
#127 = FILL_AREA_STYLE ('',( #125 ) ) ;
#128 = SURFACE_STYLE_FILL_AREA ( #127 ) ;
#129 = SURFACE_SIDE_STYLE ('',( #128 ) ) ;
#130 = PRESENTATION_STYLE_ASSIGNMENT (( #124 ) ) ;
#131 = CARTESIAN_POINT ( 'NONE',  ( 0.3750000000000000600, 4.592425496802573600E-017, 0.09375000000000001400 ) ) ;
#132 = CARTESIAN_POINT ( 'NONE',  ( -0.5000000000000000000, 0.0000000000000000000, 0.0000000000000000000 ) ) ;
#133 = CARTESIAN_POINT ( 'NONE',  ( 0.3750000000000000600, 4.592425496802573600E-017, 0.0000000000000000000 ) ) ;
#134 = CARTESIAN_POINT ( 'NONE',  ( -0.3750000000000000600, 0.0000000000000000000, 0.09375000000000001400 ) ) ;
#135 = CARTESIAN_POINT ( 'NONE',  ( 0.5000000000000000000, 6.123233995736764800E-017, 0.0000000000000000000 ) ) ;
#136 = CARTESIAN_POINT ( 'NONE',  ( -0.5000000000000000000, 0.0000000000000000000, 0.09375000000000001400 ) ) ;
#137 = CARTESIAN_POINT ( 'NONE',  ( 0.5000000000000000000, 6.123233995736764800E-017, 0.09375000000000001400 ) ) ;
#138 = ORIENTED_EDGE ( 'NONE', *, *, #195, .F. ) ;
#139 = ORIENTED_EDGE ( 'NONE', *, *, #200, .T. ) ;
#140 = ORIENTED_EDGE ( 'NONE', *, *, #202, .T. ) ;
#141 = ORIENTED_EDGE ( 'NONE', *, *, #201, .F. ) ;
#142 = ORIENTED_EDGE ( 'NONE', *, *, #199, .F. ) ;
#143 = ORIENTED_EDGE ( 'NONE', *, *, #192, .T. ) ;
#144 = ORIENTED_EDGE ( 'NONE', *, *, #198, .F. ) ;
#145 = VERTEX_POINT ( 'NONE', #137 ) ;
#146 = VERTEX_POINT ( 'NONE', #136 ) ;
#147 = VERTEX_POINT ( 'NONE', #135 ) ;
#148 = VERTEX_POINT ( 'NONE', #132 ) ;
#149 = VERTEX_POINT ( 'NONE', #133 ) ;
#150 = VERTEX_POINT ( 'NONE', #134 ) ;
#151 = VERTEX_POINT ( 'NONE', #131 ) ;
#152 = VERTEX_POINT ( 'NONE', #126 ) ;
#153 = ORIENTED_EDGE ( 'NONE', *, *, #202, .F. ) ;
#154 = ORIENTED_EDGE ( 'NONE', *, *, #198, .T. ) ;
#155 = ORIENTED_EDGE ( 'NONE', *, *, #197, .F. ) ;
#156 = ORIENTED_EDGE ( 'NONE', *, *, #201, .T. ) ;
#157 = ORIENTED_EDGE ( 'NONE', *, *, #213, .F. ) ;
#158 = ORIENTED_EDGE ( 'NONE', *, *, #193, .F. ) ;
#159 = ORIENTED_EDGE ( 'NONE', *, *, #196, .T. ) ;
#160 = ORIENTED_EDGE ( 'NONE', *, *, #199, .T. ) ;
#161 = ORIENTED_EDGE ( 'NONE', *, *, #197, .T. ) ;
#162 = ORIENTED_EDGE ( 'NONE', *, *, #192, .F. ) ;
#163 = ORIENTED_EDGE ( 'NONE', *, *, #194, .F. ) ;
#164 = ORIENTED_EDGE ( 'NONE', *, *, #195, .T. ) ;
#165 = ORIENTED_EDGE ( 'NONE', *, *, #196, .F. ) ;
#166 = ORIENTED_EDGE ( 'NONE', *, *, #200, .F. ) ;
#167 = ORIENTED_EDGE ( 'NONE', *, *, #213, .T. ) ;
#168 = ORIENTED_EDGE ( 'NONE', *, *, #194, .T. ) ;
#169 = ORIENTED_EDGE ( 'NONE', *, *, #193, .T. ) ;
#170 = EDGE_LOOP ( 'NONE', ( #158, #155 ) ) ;
#171 = EDGE_LOOP ( 'NONE', ( #157, #153 ) ) ;
#172 = EDGE_LOOP ( 'NONE', ( #154, #168 ) ) ;
#173 = EDGE_LOOP ( 'NONE', ( #166, #165, #164, #167 ) ) ;
#174 = EDGE_LOOP ( 'NONE', ( #162, #161, #160, #163 ) ) ;
#175 = EDGE_LOOP ( 'NONE', ( #159, #156 ) ) ;
#176 = EDGE_LOOP ( 'NONE', ( #169, #143, #144, #142 ) ) ;
#177 = EDGE_LOOP ( 'NONE', ( #141, #139, #140, #138 ) ) ;
#178 = DIMENSIONAL_EXPONENTS ( 1.000000000000000000, 0.0000000000000000000, 0.0000000000000000000, 0.0000000000000000000, 0.0000000000000000000, 0.0000000000000000000, 0.0000000000000000000 ) ;
#179 = DIMENSIONAL_EXPONENTS ( 1.000000000000000000, 0.0000000000000000000, 0.0000000000000000000, 0.0000000000000000000, 0.0000000000000000000, 0.0000000000000000000, 0.0000000000000000000 ) ;
#180 = PRODUCT ( 'H094H', 'H094H', '', ( #18 ) ) ;
#181 = DIMENSIONAL_EXPONENTS ( 1.000000000000000000, 0.0000000000000000000, 0.0000000000000000000, 0.0000000000000000000, 0.0000000000000000000, 0.0000000000000000000, 0.0000000000000000000 ) ;
#182 = MANIFOLD_SOLID_BREP ( 'Boss-Extrude1', #214 ) ;
#183 = PRODUCT_DEFINITION_CONTEXT ( 'detailed design', #191, 'design' ) ;
#184 = PRODUCT_DEFINITION_SHAPE ( 'NONE', 'NONE',  #9 ) ;
#185 = UNCERTAINTY_MEASURE_WITH_UNIT (LENGTH_MEASURE( 1.000000000000000100E-005 ), #22, 'distance_accuracy_value', 'NONE');
#186 = UNCERTAINTY_MEASURE_WITH_UNIT (LENGTH_MEASURE( 1.000000000000000100E-005 ), #34, 'distance_accuracy_value', 'NONE');
#187 = UNCERTAINTY_MEASURE_WITH_UNIT (LENGTH_MEASURE( 1.000000000000000100E-005 ), #119, 'distance_accuracy_value', 'NONE');
#188 = ADVANCED_BREP_SHAPE_REPRESENTATION ( 'H094H', ( #182, #71 ), #211 ) ;
#189 =( GEOMETRIC_REPRESENTATION_CONTEXT ( 3 ) GLOBAL_UNCERTAINTY_ASSIGNED_CONTEXT ( ( #187 ) ) GLOBAL_UNIT_ASSIGNED_CONTEXT ( ( #119, #118, #117 ) ) REPRESENTATION_CONTEXT ( 'NONE', 'WORKASPACE' ) );
#190 = APPLICATION_CONTEXT ( 'automotive_design' ) ;
#191 = APPLICATION_CONTEXT ( 'automotive_design' ) ;
#192 = EDGE_CURVE ( 'NONE', #151, #149, #116, .T. ) ;
#193 = EDGE_CURVE ( 'NONE', #150, #151, #209, .T. ) ;
#194 = EDGE_CURVE ( 'NONE', #149, #152, #210, .T. ) ;
#195 = EDGE_CURVE ( 'NONE', #146, #148, #106, .T. ) ;
#196 = EDGE_CURVE ( 'NONE', #146, #145, #2, .T. ) ;
#197 = EDGE_CURVE ( 'NONE', #151, #150, #1, .T. ) ;
#198 = EDGE_CURVE ( 'NONE', #152, #149, #4, .T. ) ;
#199 = EDGE_CURVE ( 'NONE', #150, #152, #33, .T. ) ;
#200 = EDGE_CURVE ( 'NONE', #145, #147, #69, .T. ) ;
#201 = EDGE_CURVE ( 'NONE', #145, #146, #5, .T. ) ;
#202 = EDGE_CURVE ( 'NONE', #147, #148, #6, .T. ) ;
#203 = ADVANCED_FACE ( 'NONE', ( #216 ), #101, .F. ) ;
#204 = ADVANCED_FACE ( 'NONE', ( #102 ), #99, .T. ) ;
#205 = ADVANCED_FACE ( 'NONE', ( #95, #97 ), #55, .F. ) ;
#206 = ADVANCED_FACE ( 'NONE', ( #96, #98 ), #51, .T. ) ;
#207 = ADVANCED_FACE ( 'NONE', ( #91 ), #84, .T. ) ;
#208 = ADVANCED_FACE ( 'NONE', ( #94 ), #82, .F. ) ;
#209 = CIRCLE ( 'NONE', #220, 0.3750000000000000600 ) ;
#210 = CIRCLE ( 'NONE', #223, 0.3750000000000000600 ) ;
#211 =( GEOMETRIC_REPRESENTATION_CONTEXT ( 3 ) GLOBAL_UNCERTAINTY_ASSIGNED_CONTEXT ( ( #186 ) ) GLOBAL_UNIT_ASSIGNED_CONTEXT ( ( #34, #36, #32 ) ) REPRESENTATION_CONTEXT ( 'NONE', 'WORKASPACE' ) );
#212 =( GEOMETRIC_REPRESENTATION_CONTEXT ( 3 ) GLOBAL_UNCERTAINTY_ASSIGNED_CONTEXT ( ( #185 ) ) GLOBAL_UNIT_ASSIGNED_CONTEXT ( ( #22, #21, #13 ) ) REPRESENTATION_CONTEXT ( 'NONE', 'WORKASPACE' ) );
#213 = EDGE_CURVE ( 'NONE', #148, #147, #7, .T. ) ;
#214 = CLOSED_SHELL ( 'NONE', ( #208, #207, #206, #205, #204, #203 ) ) ;
#215 = MECHANICAL_DESIGN_GEOMETRIC_PRESENTATION_REPRESENTATION (  '', ( #217 ), #189 ) ;
#216 = FACE_OUTER_BOUND ( 'NONE', #174, .T. ) ;
#217 = STYLED_ITEM ( 'NONE', ( #130 ), #182 ) ;
#218 = PRESENTATION_LAYER_ASSIGNMENT (  '', '', ( #217 ) ) ;
#219 = VECTOR ( 'NONE', #114, 39.37007874015748100 ) ;
#220 = AXIS2_PLACEMENT_3D ( 'NONE', #113, #112, #111 ) ;
#221 = AXIS2_PLACEMENT_3D ( 'NONE', #64, #63, #62 ) ;
#222 = LENGTH_MEASURE_WITH_UNIT ( LENGTH_MEASURE( 0.02539999999999999900 ), #120 );
#223 = AXIS2_PLACEMENT_3D ( 'NONE', #110, #109, #108 ) ;
ENDSEC;
END-ISO-10303-21;
